música
Buscador

Acorde de Ritcher 7.5 - Desakato

Letra de Ritcher 7.5

Intro  (x4)



E -----------------------------------------------------------------------

A ----6-6-6-----------2-2-2----------4-4-4----------1-1-1----------------

D ------------4-3-------------4-3-------------4-3------------4-3---------

G -----------------------------------------------------------------------

B -----------------------------------------------------------------------

E -----------------------------------------------------------------------



D# B C# A#



D#

Ya no aguanto más

F#

veo como el sol

G# D#/C#

golpea en mi cabeza.



D#

Una aspiración

F#

de quemar mi voz

G# D#/C#

va agotando mi paciencia.



B

Esta sensación

C# D#/C#

que no sabe de maneras

B

y el corazón

C#

se va muriendo de pena.



Intro (x2)



E -----------------------------------------------------------------------

A ----6-6-6-----------2-2-2----------4-4-4----------1-1-1----------------

D ------------4-3-------------4-3-------------4-3------------4-3---------

G -----------------------------------------------------------------------

B -----------------------------------------------------------------------

E -----------------------------------------------------------------------



D# B C# A#



D#

Oigo esa canción

F#

que araña el color

G# D#/C#

y el sudor de la apariencia.



D#

Como la traición

F#

https://www.coveralia.com/acordes/ritcher-7-5-desakato.php

va bailando al son

G# D#/C#

de tu rompecabezas.



B

Mi única intención

C# D#/C#

es cambiar toda esta mierda.



B

Desde la razón

C# A# B C#

vamos buscando las armas pa' enfrentarnos a la realidad...



F# C# D# B

Esta vez no puedo mirar a ningún culpable

F# C# B

pero se que este desastre no es natural.



F# C# D# B

Muerde los caminos y empuja con el hambre

F# C# B

las ganas de seguir buscando la verdad.





E ----------------------------------------------

A ----------------------------------------------

D ----1-1--1-4-3-1-3---------1-1--1-4-3-1-3-----

G ---------------------------------------------- (x6)

B ----------------------------------------------

E ----------------------------------------------



D#





F# C# D# B

Esta vez no puedo mirar a ningún culpable

F# C# B

pero se que este desastre no es natural.



F# C# D# B

Muerde los caminos y empuja con el hambre

F# C# B

las ganas de seguir buscando la verdad.



F# C# D# B

Hoy pagan los pobres los derroches de esperanza,

F# C# B

algún día la tierra nos lo hará pagar.



F# C# D# B

Muerde los caminos y empuja con el hambre

F# C# B C# F#

las ganas de seguir buscando la verdad.

Letra subida por: Anónimo

Discos en los que aparece este acorde: Con El Viento De Cara

El acorde de Ritcher 7.5 de Desakato es una versión de la canción original realizada por colaboradores/usuarios de Coveralia.

¿Has encontrado algún error en esta página? Envíanos tu corrección del acorde