música
Buscador

Acorde de Pensar En Nada - Leon Gieco

Letra de Pensar En Nada

Intro:



1ra Guit: D F G D F G

riff 1

2da Guit: e|---------------------------------------------------|

B|-------3----3---3-----1-3-------3----3---3-----1---|

G|-------2----2---2-----0-2-------2----2---2-----0-2-|hasta

D|-0-0-0----0-------0h2-----0-0-0----0-------0h2---0-|estrib

A|---------------------------------------------------|

E|---------------------------------------------------|



D F G

Justo ayer me di cuenta

D F G

que solo es cuestion de plata

D F G

mientras 10 ventanillas cobran

D F G

una sola es la que paga



D F G D F G



De como piensa la gente

a veces la diferencia

es tan grande que parecen

seres de alguna otra tierra



D F G D F G



ESTRIBILLO



A

Y que me dicen de esa casa sola

que se ve desde un avión

Bb A riff 2

quiza en la soledad no alla dolor

D A

de pensar, oh dolor

D riff 3 A F

de pensar, de pensar

G D F G D

en nada oh en nada

F G D F G D

oh en nada, oh en nada



https://www.coveralia.com/acordes/pensar-en-nada-leon-gieco.php
solo: A A A A G D A



G F D G F D



1ra Guit: D F G D F G

riff 1

2da Guit: e|---------------------------------------------------|

B|-------3----3---3-----1-3-------3----3---3-----1---|

G|-------2----2---2-----0-2-------2----2---2-----0-2-|hasta

D|-0-0-0----0-------0h2-----0-0-0----0-------0h2---0-|estrib

A|---------------------------------------------------|

E|---------------------------------------------------|



En la oficina del trabajo

llegando el año nuevo

todos se pelean por

ese maldito ascenso



Con la cuota de frustración

algunos la viven de rosa

la ciudad se pone grande

y cada vez mas peligrosa.





Y que me dicen de esa casa sola

que se ve desde un avión

quiza en la soledad no alla dolor

de pensar, oh dolor

de pensar, de pensar

en nada oh en nada

oh en nada, oh en nada



solo: A A A A G D A



G F D G F D



riff 2 riff 3

e|-------| e|-------|

B|-------| B|-------|

G|-------| G|-------|

D|-------| D|-2-3-4-|

A|-0h2h0-| A|-------|

E|-------| E|-------|

El acorde de Pensar En Nada de Leon Gieco es una versión de la canción original realizada por colaboradores/usuarios de Coveralia.

¿Has encontrado algún error en esta página? Envíanos tu corrección del acorde