música
Buscador

Acorde de Más de una vez - Ivan Ferreiro

Letra de Más de una vez









Em

Puedes recordar lo que viví

C G

lo que paso y todavia no estoy yo.



Em

Dicen que encendí mas de una luz

C G

y que os engañe pero no sabes como soy



C D Em

Es casi una cuestión de fe

D C

casi es una decisión

D Em

que nunca he tomado yo



Em

Ví una conclusión y me cege

C G

quise comerlo todo de una vez



Em

Y el gas natural me atraganto

C G

yo lo explicaba todo del reves



C D

SI... tenia miedo

Em D C

y también tenia un hueco aqui...



D Em

que no dejaba hablar



C D Em

Solo decir lo que querias oir,

D C D Em D

que eso no era normal y pudieras dormir sin mi



https://www.coveralia.com/acordes/mas-de-una-vez-ivan-ferreiro.php

[Y sigue con la misma sucesion de acordes: C D Em D]



Y ahora son ya mas de las tres

aun no bosteces, la cosa sigue igual

pero al revés

yo ahora estoy bien!



Ya sabes la verdad

sabemos que esta mal



Sabes que te engañe mas de una vez



¿y qué?

¿y qué?

¿y qué?



Que le voy a hacer,.. la historia no da más.







riff del final:



Guitarra 1: no se cuantas veces lo toca pero supongo que 4.



----------------------------------------------|

-----------1----------------3-----------------|

----------------------------------------------|

--------2----------------4------4-------------|

-----3----------3---3/5-----------------------|

----------------------------------------------|



Guitarra 2: Esto hay que tocarlo con mucha delicadeza y amor... jeje.



-----------------------------------------------------|

------------15----12/10----------12------------------|

-------14^---------------13-12-------14^-------------|

------------------------------------------14---------|

----------------------------------------------14-----|

-----------------------------------------------------|









Letra subida por: Anónimo

Discos en los que aparece este acorde: Mentiroso Mentiroso , Mentiroso Mentiroso En Directo

El acorde de Más de una vez de Ivan Ferreiro es una versión de la canción original realizada por colaboradores/usuarios de Coveralia.

¿Has encontrado algún error en esta página? Envíanos tu corrección del acorde