música
Buscador

Acorde de La Armada Invencible - Tierra Santa

Letra de La Armada Invencible

INTRO (rápido)

X2 Riff 1



----------------------------------------------------------

----------------------------------------------------------

----------------------------------------------------------

----------------------------------------------------------

-12p0-10p0-12p0-10p0-12p0-10p0-10p0-9p0-10p0-9p0-10p0-9p0-

----------------------------------------------------------



---------------------------------------------------

---------------------------------------------------

---------------------------------------------------

---------------------------------------------------

-9p0-7p0-9p0-7p0-9p0-7p0-10p0-9p0-10p0-9p0-7p0-9p0-

---------------------------------------------------



Riff 2

X4



---------------------------------------------------

---------------------------------------------------

---------------------------------------------------

---------------------------------------------------

-10p0-9p0-7p0-5p0-4p0-5p0--7p0-5p0-4p0-5p0-7p0-9p0-

---------------------------------------------------



luego va el intro

X2



VERSO 1 (0:40)

X2

--------------------------------

--------------------------------

---------5-------------5-4-5----

-7xxxxx--5--5--7xxxxx--5-4-5-7--

-7xxxxx--3--5--7xxxxx--3-2-3-7--

-5xxxxx-----3--5xxxxx--------5--

Se escucha en el mar

rugir la tormenta

Allí donde se pierde el poder del valor

Rogando por la salvación

Arriba un alud

descarga su fuerza

y el viento levanta las olas del mar

viendo llegar su final



CORO 1 (1:06)



-----------------------------------------------------------

-----------------------------------------------------------

-----------------------------------------------------------

-3---------------------------------------------------3--2--

-3--3p0-2p0-3p0-2p0-3p0-2p0--3p0-2p0-3p0-2p0-3p0-2p0-3--2--

-1---------------------------------------------------1--0--

un hombre quiere escapar de la muerte

le han obligado a la fuerza a luchar



Riff 1

X2



en la armadaaaaaaa¡



VERSO 2

(igual al 1)

la mar se calmó

cesó la tormenta

pero ahora debes volver a luchar

para tu vida salvar

de pronto ante ti

un barco se acerca

se ve a los cañones

su fuego lanzar

para poderle abordar



CORO 2

(igual al 1)

https://www.coveralia.com/acordes/la-armada-invencible-tierra-santa.php

un hombre quiere escapar de la muerte

le han obligado a la fuerza a luchar



Riff 1

X2



en la armadaaaaaaa¡



Riff 2

X2



*solo de guitarra

(2:31)



RIFF ESPECIAL 1

(2:57) X4



--------------------------------

--------------------------------

--------------------------------

--------------------------------

-17p0-15p0-14p0-15p0-17p0-19p0--

--------------------------------



--------------------------------

--------------------------------

--------------------------------

--------------------------------

-20p0-19p0-17p0-15p0-14p0-15p0--

--------------------------------



luego (3:10)

X4



--------------------------------

--------------------------------

--------------------------------

--------------------------------

-17p0-15p0-17p0-19p0-20p0-19p0--

--------------------------------



--------------------------------

--------------------------------

--------------------------------

--------------------------------

-20p0-19p0-17p0-15p0-14p0-15p0--

--------------------------------



VERSO 3

(igual al 1 y 2)

ahora el dolor consume tu alma

la espada de otro hombre atraviesa tu piel

y acaba tu vida y tu ser

el hombre que hoy

provoca tu muerte

mira tus ojos y ve con dolor

al hermano que allí dejo



CORO 3

(igual al 1 y 2)

saca la espada y la clava en su pecho

junto a su hermano él hoy quiere morir



Riff 1

X2



por la armadaaaaaaaa¡



RIFF FINAL



----------------

----------------

------5-4-5--2--

-2----5-4-5--2--

-2----3-2-3--0--

-0--------------

Letra subida por: Anónimo

Discos en los que aparece este acorde: Sangre De Reyes , 1997-2007 ,

El acorde de La Armada Invencible de Tierra Santa es una versión de la canción original realizada por colaboradores/usuarios de Coveralia.

¿Has encontrado algún error en esta página? Envíanos tu corrección del acorde