música
Buscador

Acorde de David Y El Gigante - Tierra Santa

Letra de David Y El Gigante

*Línea de teclado



*(0:51)línea de bajo



INTRO (guitarra)

(1:00) rapido

X2



--------------------------------

--------------------------------

--------------------------------

-7-6---9-7-6-7-6-7-9-7-6-7-6----

-----7-----------------------7--

--------------------------------



----------------------------

----------------------------

----------------------------

-7-6---9-7-6-7-6-7-9-7-6----

-----7-------------------7--

----------------------------



--------------------------------

--------------------------------

--------------------------------

-5-4---7-5-4-5-4-5-7-5-4-5-4----

-----5-----------------------5--

--------------------------------



----------------------------

----------------------------

----------------------------

-2-1---4-2-1-2-1-2-4-2-1----

-----2-------------------2--

----------------------------



VERSO 1

(1:18)



X2

----------------------

----------------------

-9xx-xx-xx-xx--7xxxx--

-9xx-xx-xx-xx--7xxxx--

-7xx-xx-xx-xx--5xxxx--

----------------------

Esta es la historia de un rey

que fue pastor antes de gobernar

que con su onda y su fe

mató a un gigante llamado Goliat



----------------------

----------------------

-5xxxx--7xxxx--9xxxx--

-5xxxx--7xxxx--9xxxx--

-3xxxx--5xxxx--7xxxx--

----------------------

y a su pueblo salvó

del sufrimiento y la muerte



----------------------

----------------------

-5xxxx--7xxxx--4xxxx--

-5xxxx--7xxxx--4xxxx--

-3xxxx--5xxxx--2xxxx--

----------------------

superó con valor

el miedo que tuvo al luchar



RIFF ESPECIAL 1

(1:54)

X8



https://www.coveralia.com/acordes/david-y-el-gigante-tierra-santa.php

--------------------------------

--------------------------------

--------------------------------

--------------7-----------------

-7-7-7-10-9-5----10-9-10-9-7-5--

--------------------------------



VERSO 2

(igual al 1)

cuando su fama creció

lleno de envidia su rey lo expulsó

y en el exilio luchó

a mercenario su vida cambió

pero un día volvió

a reclamar su destino

como rey gobernó

bajo su espada y su ley



CORO 1 (2:48)

X2



--------------------------------------

--------------------------------------

-9xxxxxx--5xxxx--7xxxx--9xxxx--7-7-7--

-9xxxxxx--5xxxx--7xxxx--9xxxx--7-7-7--

-7xxxxxx--3xxxx--5xxxx--7xxxx--5-5-5--

--------------------------------------

Aquel pastor

se convirtió

En el dueño de otro rebaño



*solo de guitarra

(3:05)



*RIFF ESPECIAL 1

X8



VERSO 3 (4:00)

(igual al 1 y 2)

Venciendo al miedo el pastor

a su enemigo busco en su interior

Al enfrentarse con él

pudo ganar a su propio terror

Por que el reto no esta

en poder ganar al gigante

Sino en poder superar

el miedo a enfrentarse con él



CORO 2 (4:35)

(igual al 1)

Aquel pastor

se convirtió

En el dueño de otro rebaño



INTRO RIFF (4:53)

X2



RIFF FINAL (5:11)



-----------------------------------

-----------------------------------

-----------------------------------

-7-6-4-7-6-4-7-6--7-6-4-7-6-4-7-6--

-----------------------------------

-----------------------------------



--------------------------

--------------------------

------------------9~~--9--

-7-6-4-7-6-4-7-6--9~~--9--

------------------7~~--7--

--------------------------

Letra subida por: Anónimo

Discos en los que aparece este acorde: Sangre De Reyes , 1997-2007 , Esencia

El acorde de David Y El Gigante de Tierra Santa es una versión de la canción original realizada por colaboradores/usuarios de Coveralia.

¿Has encontrado algún error en esta página? Envíanos tu corrección del acorde