música
Buscador

Acorde de I Wanna Be Your Man - The Rolling Stones

Letra de I Wanna Be Your Man

C       C7 C    C7     C             C7 C    G7 

I wanna be your lover, baby, I wanna be your man

C C7 C C7 C G7 C

I wanna be your lover, baby, I wanna be your man

C C7 C C7 C C7 C G7

Tell me that you love me, baby, tell me you understand

C C7 C C7 C G7 C

Tell me that you love me, baby, tell me you understand



C D7 G7 C

I wanna be your man I wanna be your man

e|---------------------------------------------------------------------------|

B|--------------------10-9-8------------------------8-7-6--------------------|

G|---------------------------7----------------------------9------------------|

D|---------------------------------------------------------------------------|

A|---------------------------------------------------------------------------|

E|---------------------------------------------------------------------------|



C D7 G7 C

I wanna be your man I wanna be your man

e|---------------------------------------------------------------------------|

B|---------------------10-9-8------------------------------------------------|

G|----------------------------7-----7--7----7--7----8-6----------------------|

D|---------------------------------------------------------------------------|

A|---------------------------------------------------------------------------|

E|---------------------------------------------------------------------------|

http://www.coveralia.com/acordes/i-wanna-be-your-man-the-rolling-stones.php





e|----------8-10-8----8----------8------------------------8-10-8---8---------|

B|-8-8-8-11--------11---8-8-8-11--------8------8--8-8-8-11-------11----------|

G|---------------------------------7-11---7-11-------------------------------|

D|---------------------------------------------------------------------------|

A|---------------------------------------------------------------------------|

E|---------------------------------------------------------------------------|



e|---------------------------------------------------------------------------|

B|-8-8-8-6-------------------------------------------------------------------|

G|---------8-5---------------------------------------------------------------|

D|---------------------------------------------------------------------------|

A|---------------------------------------------------------------------------|

E|---------------------------------------------------------------------------|





C C7 C C7 C C7 C G7

Tell me that you love me, baby, tell me you understand

C C7 C C7 C G7 C

Tell me that you love me, baby, tell me you understand

C C7 C C7 C C7 C G7

I wanna be your lover, baby, I wanna be your man

C C7 C C7 C G7 C

I wanna be your lover, baby, I wanna be your man

Letra subida por: Anónimo

Discos en los que aparece este acorde: Rolled Gold , Singles Collection: The London Years , Grrr! (Deluxe Edition) , On Air

El acorde de I Wanna Be Your Man de The Rolling Stones es una versión de la canción original realizada por colaboradores/usuarios de Coveralia.

¿Has encontrado algún error en esta página? Envíanos tu corrección del acorde