música
Buscador

Acorde de Yule Shoot Your Eye Out - Fall Out Boy

Letra de Yule Shoot Your Eye Out

Chords Used:



B C# G# E Em F# E/G F/B C E/A F G Fmaj

e|-----|-----|-----|--0--|--0--|-----|-----|-----|-----|-----|-----|-----|------|

B|-----|-----|-----|--0--|--0--|-----|-----|-----|-----|-----|-----|-----|------|

G|--4--|--6--|-----|--1--|--0--|-----|-----|--3--|--5--|--5--|-----|-----|--2---|

D|--4--|--6--|--6--|--2--|--2--|--4--|--5--|--4--|--5--|--5--|--3--|--5--|--3---|

A|--2--|--4--|--6--|--2--|--2--|--4--|--6--|--1--|--3--|--2--|--3--|--5--|--3---|

E|-----|-----|--4--|--0--|--0--|--2--|--3--|-----|-----|-----|--1--|--3--|--1---|





Intro

e|---------------------|

B|----4-2-0-----5-4-0--|

G|---------------------|

D|--4---------4--------|

A|---------------------|

E|---------------------|(Repeat as many times as nessecary)



B C# G# E x2





B C#

These are your good years.



G# E

Don't take my advice.



B C# G# E

You never wanted the nice boys anyway...



B C#

And I'm of good cheer.



G# E

'Cause I've been checking my list,



B C# G#

The gifts you're receiving from me,



E

Will be...







E/G G#

One awkward silence.



E

And two hopes.



E/G G#

You cry yourself to sleep,



E

Staying up, waiting by the phone.



E/G G#

And all I want this year,



E E/G G#

Is for you to dedicate your last breathe to me.



E Em

Before you bury yourself alive...







Chorus:





B F/B E F#

Don't come home for Christmas.



B F/B E

You're the last thing I wanna see.



F# B F/B E F#

Underneath the tree.



E

Merry Christmas,



Em

I could care less.





(Repeat Intro Chords)





B C# G#

Happy New Years baby.

https://www.coveralia.com/acordes/yule-shoot-your-eye-out-fall-out-boy.php



E

You owe me,



B C# G# E

The best gift I will ever ask for.



B C# G# E

Don't call me up, when the snow comes down.



B C# G# E

It's the only thing I want this year.







E/G G#

One awkward silence.



E

And two hopes.



E/G G#

You cry yourself to sleep,



E

Staying up, waiting by the phone.



E/G G#

And all I want this year,



E E/G G#

Is for you to dedicate your last breathe to me.



E Em

Before you bury yourself alive...







B F/B E F#

Don't come home for Christmas.



B F/B E

You're the last thing I wanna see.



F# B F/B E F#

Underneath the tree.



E

Merry Christmas,



Em

I could care less.





Interlude

e|---------------------|---|-----------|------------------|

B|----4-2-0-----5-4-0--|---|----4-2-2--|---2---2---2---2--|

G|---------------------|---|-----------|-4---4---4---4----|

D|--4---------4--------|---|--4--------|------------------|

A|---------------------|---|-----------|------------------|

E|---------------------|x8-|-----------|------------------|x3





Final Chorus:





C E/A F G

Don't come home for Christmas.



C E/A F

You're the last thing I wanna see.



G C E/A F G

Underneath the tree.



Fmaj

Merry Christmas,



F

I could care less. x2





End On:

e|-----|

B|--1--|

G|--0--|

D|--2--|

A|--3--|

E|-----|





Letra subida por: Anónimo

Discos en los que aparece este acorde: Believers Never Die: Greatest Hits

El acorde de Yule Shoot Your Eye Out de Fall Out Boy es una versión de la canción original realizada por colaboradores/usuarios de Coveralia.

¿Has encontrado algún error en esta página? Envíanos tu corrección del acorde