música
Buscador

Acorde de Yo Traigo La Semilla - Almafuerte

Letra de Yo Traigo La Semilla

Ahí tienen para rato



Afinación: Re La Do Fa La Re



Intro: x2

|------------------------------------------------|

|------------------------------------------------|

|-----------7-9---------------------7-6-5--7-/9--|

|--2-7-/5-2-7-9-7-/5-7-/5--2-7-/5-2-7-6-5--7-/9--|

|--2-7-/5-2-5-7-7-/5-7-/5--2-7-/5-2-5-4-3--5-/7--|

|--0-5-/3-0-----5-/3-5-/3--0-5-/3-0--------------|



Base

|-------------------------------------------

|-------------------------------------------

|-------------------------------------------

|--22-22---0-h2-----4p2-22-22---0-h2--------

|--22-22-0------3-5-----22-22-0-------------

|--00-00----------------00-00--------3h5-0--

PM ..... ...

Para que la semilla de la conciencia llegue a vos



--------------------------------------------|

--------------------------------------------|

-------------------------------7-6-5--7-/9--|

--22-22---0-h2-----4p2-22-22---7-6-5--7-/9--|

--22-22-0------3-5-----22-22-0-5-4-3--5-/7--|

--00-00----------------00-00----------------|

PM..... ...

Dando vuelta la tierra en lus surcos de la vida estoy





Intro

Soy quien soy, cabeza de tractor



Base

Rodando firme, pasando todo por arriba

Solo aplastando mas nunca olvidando



RE5 SOL5 LA#5 DO5 RE5 DO5

|-------------------------------------------------------------

|-------------------------------------------------------------

|--------------2------------5---------7-/9-/7----------0h2----

|-2------------2------------5---------7-/9-/7--------------2--

|-2------------0------------3---------5-/7-/5-----------------

|-0-----------------------------------------------------------

Es la sangre del caudillo la que hoy mueve mi motor



RE5 SOL5

--------------------------------------------------------------------

--------------------------------------------------------------------

-----0-----------0----2h4p2-0-h2-2--------4-----2------0h2p0--------

------------4------------------------------------------------2p0h2--

--------------------------------------------------------------------

--------------------------------------------------------------------

Maquinaria compleja, la cabeza tractoreando

RE5 LA#5 DO

-----------------------------------------------------------------------------

-------------------------------------------------------------------------

------0---2------------------------------------------------------------

https://www.coveralia.com/acordes/yo-traigo-la-semilla-almafuerte.php

--2-2---2---4------------------------------------------------------

---------------------------------------------------------------------

------------------------------------------------------------------------

las inclemencias del tiempo estoy aguantando

RE5 SOL5

-----------------------------------------------------------------------------

-------------------------------------------------------------------------

--------12-/9-9--------------------------------------------------------

--2-2-2-12-/9-9----------------------------------------------------

--2-2-2-10-/7-7------------------------------------------------------

--0-0-0-----------------------------------------------------------------

La sequía de hermandad no engendra mas que suplicios

RE5 LA#5 DO5

y aquí estamos otra vez, cuadrilla de hombres poco recomendables



LA5 DO5

Dando vuelta la tierra, en los surcos de la vida

LA5 SOL5

Dando vuelta la tierra, de la carne



Solo



Arpegios:

Hombre y máquina sembrando gravillas

al paredón de la propia vida

Trabajo duro el que me espera,

tierra esteril chorreando sudera



En los surcos de la vida soy cabeza de tractor

traigo la semilla, soy quien soy



Cabeza de tractor



Rodando firme, pasando todo por arriba

Solo aplastando mas nunca olvidando



Es la sangre del caudillo la que hoy mueve mi motor



Maquinaria compleja,

LA cabeza tractoreando

las inclemencias del tiempo

estoy aguantando



La sequía de hermandad

no engendra mas que suplicios

y aquí estamos otra vez,

cuadrilla de hombres poco recomendables



Dando vuelta la tierra, en los surcos de la vida

Dando vuelta la tierra, de la carne



Cabeza de tractor,

yo traigo la semilla,

cabeza de tractor...



V8

Hermética Horcas Logos Rata Blanca





Letra subida por: Anónimo

Discos en los que aparece este acorde: Ultimando , 10 Años , En Vivo Obras 2009 , En Vivo Obras (Dvd) , En Vivo Obras (Dvd)

El acorde de Yo Traigo La Semilla de Almafuerte es una versión de la canción original realizada por colaboradores/usuarios de Coveralia.

¿Has encontrado algún error en esta página? Envíanos tu corrección del acorde