música
Buscador

Acorde de White As Snow - Jon Foreman

Letra de White As Snow

Eb Tuning - Eb Ab Db Gb Bb Eb



*Chords are listed at end of song





Intro [Pick each chord once]

D6 D Dsus4 Dsus4 [7x]

D6 D Dsus4



Riff - 00:11 & 00:28

eb|-----------------|

Bb|-----------------|

Gb|-----------------|

Db|--7--5-----------|

Ab|--------7--5-----|

Eb|--------------7--|





Verse 1 - 2x

Dsus4 D6 D Dsus4

Have mercy on me, oh God

Dsus4 D6 D Dsus4

According to Your unfailing love

Dsus4 D6 D Dsus4

According to Your great compassion

Dsus4 D6 D Dsus4

Blot out my transgressions





Chorus - 2x

Dsus4 D6 D Dsus4 Dsus4 D6 D

Would You create in me a clean heart

Dsus4 Dsus4

Oh God

D6 D Dsus4 Dsus4

Restore in me

D6 D Dsus4 Dsus4

The joy of Your salvation





Verse 2 - 2x

https://www.coveralia.com/acordes/white-as-snow-jon-foreman.php

Dsus4 D6 D Dsus4

The sacrifices of our God

Dsus4 D6 D Dsus4

Are a broken and contrite heart

Dsus4 D6 D Dsus4 Dsus4 D6 D Dsus4

Against you and you alone have I sinned





Chorus - 2x





Bridge - 3x

G(no3) D(no3)* G(no3)

Wash me white as snow

D(no3)*

And I will be made whole





Bridge End

G(no3)

Wash me white as snow





Chorus - 2x





*Chords Used

D6 = D6(no3)

D = D(no3)



D6(no3) D(no3) Dsus4 G(no3) D(no3)*

eb|------------------------------------------|

Bb|----------------------------3-------3-----|

Gb|-----2-------2-------2------0-------2-----|

Db|-----0-------0-------0------0-------0-----|

Ab|-----2-------0--------------x-------------|

Eb|---------------------3------3-------------|





Letra subida por: Anónimo

Discos en los que aparece este acorde: Winter , Fall, Winter, Spring, Summer

El acorde de White As Snow de Jon Foreman es una versión de la canción original realizada por colaboradores/usuarios de Coveralia.

¿Has encontrado algún error en esta página? Envíanos tu corrección del acorde