música
Buscador

Acorde de Whiskeria - Pier

Letra de Whiskeria

Intro y base de toda la cansion en MI menor



(tiene que tener distorsion para que suene bien)





1---------------------------------------------------

2---------------------------------------------------

3---------------------------------------------------

4--------------------------------------------------- repite 3 veces

5----2---2----2---2---2---2---2---2-----------------

6----0---0----3---0---5---0---3---0-----------------







1---------------------------------------------------

2--------------------------------------------------- una sola ves

3---------------------------------------------------

4---------------------------------------------------

5------------0---2---0-------2----------------------

6----0---3---------------3---0----------------------









Estrofa con riff de intro





El mar azul te sienta bien,



el aire puro te sienta bien,



el vino bueno te sienta bien,



veni sentate, sentate bien







1---------------------------------------------------

2----7----------------------------------------------

3--------9---7-------7---7--------------------------

4----------------9-----------9---7-------7----------

5------------------------------------9--------------

6---------------------------------------------------



(estrofa)



Vestido rojo te queda bien,



esa figura te queda bien,



ropa insinuante te queda bien,



veni sentate te quiero ver





(Estribillo)



DO5*

Para darte y para darme

RE5*

de mi parte una caricia

MI5*

necesito mi delicia,



tu sonrisa...





(estrofa)





Sos mi veneno, sabes muy bien



sos mi consuelo, sabes muy bien



sos mi dulsura, sabes muy bien



cuanto te extraño, sabes muy bien





https://www.coveralia.com/acordes/whiskeria-pier.php



1---------------------------------------------------

2----7----------------------------------------------

3--------9---7-------7---7--------------------------

4----------------9-----------9---7-------7----------

5------------------------------------9--------------

6---------------------------------------------------









(Estribillo)



DO5*

Para darte y para darme

RE5*

de mi parte una caricia

MI5*

necesito mi delicia,



tu sonrisa...







Repite base pero machacando unas 8 veces







(Estribillo)



DO5*

Para darte y para darme

RE5*

de mi parte una caricia

MI5*

necesito mi delicia,



tu sonrisa...







(Estribillo)



DO5*

Para darte y para darme

RE5*

de mi parte una caricia

MI5*

necesito mi delicia,



tu sonrisa...







Nena dame una caricia...



fin







Acordes de estribillo



DO5* 3cuerda-------7-------------

4cuerda-------5-------------





RE5* 3cuerda-------9------------

4cuerda-------7------------





MI5* 3cuerda-------11------------

4cuerda--------9------------











Letra subida por: Anónimo

Discos en los que aparece este acorde: Rock En Monsterland , Desde Las Sombras: Vivo En El Templo Del Rock

El acorde de Whiskeria de Pier es una versión de la canción original realizada por colaboradores/usuarios de Coveralia.

¿Has encontrado algún error en esta página? Envíanos tu corrección del acorde