música
Buscador

Acorde de We've Had Enough - Alkaline Trio

Letra de We've Had Enough

riff 1

|----------------------------------------------------------------------------|

|----------------------------------------------------------------------------|

|-----------9-9-9-9-9-9-9-9------------6-6-6-6-6-6-6-6-6------------4-4-4-4--|

|-4-2-4-2-4-x-x-x-x-x-x-x-x-4-2-4-2-4-x-x-x-x-x-x-x-x-x--4-2-4-2-4-x-x-x-x---|

|-4-2-4-2-4-7-7-7-7-7-7-7-7-4-2-4-2-4-4-4-4-4-4-4-4-4-4-4-2-4-2-4-2-2-2-2----|

|-2-0-2-0-2------------------2-0-2-0-2--------------------2-0-2-0-2----------|



--------------------------|

--------------------------|

-4-4-4-4------------------|

-x-x-x-x--4-6-7-6-9-7-6-2-|

-2-2-2-2--4-6-7-6-9-7-6-2-|

----------2-4-5-4-7-5-4-0-|



riff 2

|----------------------------------------------------------|

|----------------------------------------------------------|

|----------------------------------------------------------|

|-4-4-2-2-4-4-2-2-4-4-2-2-4^--4-4-2-2-4-4-2-2-4-4-2-2-4^-4-|

|----------------------------------------------------------|

|----------------------------------------------------------|



riff 3

|-----------------------------------------------------------------------------------|

|-10-10-10-1010-10-10-10-1010-10-10-10-10-10-10-------------------------------------|

|-x--x--x--x--x--x--x--x--x--x--x--x--x--x--x--x--9-9-9-9-9-9-9-9-6-6-6-6-7-7-7-7---|

|-7--7--7--7--7--7--7--7--7--7--7--7--7--7--7--7--x-x-x-x-x-x-x-x-x-x-x-x-x-x-x-x---|

|--------------------------------------------------7-7-7-7-7-7-7-7-4-4-4-4-5-5-5-5--|

|-----------------------------------------------------------------------------------|



|-------------------|

|-------------------|

|-------------------|

|-------------------|

|-------------------|

|-2-4-5-4-7-5-4-0-2-|



riff 1



F# E

in the shadows where their heads hang low

F# E

you hear the voices as the wind blows

A E

asking can't you see

B D C#

reminding you to breathe



it's only time before it catches up

to you and all you're broken luck

i've found a better way

to get even with my memory



second half of riff 1



in the darkness where the angels cry

https://www.coveralia.com/acordes/we-ve-had-enough-alkaline-trio.php

give us water give us back our lives

our bed's this concrete floor

and it's all we have left to live for

a day we'll never face we're only

second and the sick and lonely

biting back the tears

and every inch depends on both our ears



A

that said we've had enough

F# D

please turn that fuckin' radio off

ain't nothing on the airwave in the

despair we feel



one guitar plays F# E a coupla times while other guitar plays riff 2



in the shadows where their heads hang low

you hear the voices as the wind blows

asking can't you see

reminding you to breathe

it's only time before it catches up

to you and all you're broken luck

i've found a better way

to get even with my enemies



that said we've had enough

please turn that fuckin' radio off

ain't nothing on the airwave in the

despair we feel



that said we've had enough

who'd welcome in the sound and turn it up

ain't nothing on the airwave in the

hatred we feel



A D A E A D E E



A D

this is our biggest fear

A E

the only tunes that we hear

A D

come through the antennae through

E E

your brown radio alone I wait



riff 3 on 1 guitar while other does chorus, and continue riff 3 on 1 guitar for next part



that said we've had enough (we've had enough)

that said we've had enough (we've had enough)



end with last part of riff 1





Letra subida por: Anónimo

Discos en los que aparece este acorde: Good Mourning , Damnesia

El acorde de We've Had Enough de Alkaline Trio es una versión de la canción original realizada por colaboradores/usuarios de Coveralia.

¿Has encontrado algún error en esta página? Envíanos tu corrección del acorde