música
Buscador

Acorde de Walk Away - Funeral For A Friend

Letra de Walk Away



Key: C then D



Tuning: Standard EADGBe



Chords used:

C - x32010

G - 320003

Em - 022000

F - 133211

D - xx0232

A - x02220

F#m - 244222





Intro: C-G-Em-F (x2)



Guitar 2:

e|-8---7---|-10---8---|

B|---8---8-|----8---8-|

G|---------|----------|

D|---------|----------| (x2)

A|---------|----------|

E|---------|----------|

x4 x4





Verse 1:

C G Em F

All the words that we have to say

C G

They don't leave

Em F

When the moment comes we know we have to wait

C G Em F

As the days go on and the places fade away

C G Em F

Into dirt, into dust, it all fades away





Refrain :

F-G Em F

And the waiting is the hardest thing to take

F-G Em F

A moment more before we break



Refrain:

e|-----3-|

B|---1---|

G|-0-----|

D|-------| (x8)

A|-------|

E|-------|





https://www.coveralia.com/acordes/walk-away-funeral-for-a-friend.php

Chorus:

C G Em

If you have to let it go

F

And these dreams keep you awake

C G Em

If you have to let it go

F

Walk away



Guitar 2:

e|-8---7---|-10---8---|

B|---8---8-|----8---8-|

G|---------|----------|

D|---------|----------| (x2)

A|---------|----------|

E|---------|----------|

x4 x4





Verse 2:

C-G Em F C

And the shapes we want to see

G

Don't leave

Em F

Another piece that this puzzle needs





(Repeat Refrain and Chorus 1)

(Repeat Refrain and Chorus 1 in silence)





Chorus 2: Modulate from C to D

D A F#m

If you have to let it go

G

And these dreams keep you awake

D A F#m

If you have to let it go

G

Walk away (Walk away)

(Repeat)



Guitar 2:

e|-10----9----|-12---10-----|

B|----10---10-|----10---10--|

G|------------|-------------|

D|------------|-------------| (x2)

A|------------|-------------|

E|------------|-------------|

x4 x4





Letra subida por: Anónimo

Discos en los que aparece este acorde: Tales Don't Tell Themselves , Your History Is Mine: 2002-2009

El acorde de Walk Away de Funeral For A Friend es una versión de la canción original realizada por colaboradores/usuarios de Coveralia.

¿Has encontrado algún error en esta página? Envíanos tu corrección del acorde