música
Buscador

Acorde de Ven - Mama Ladilla

Letra de Ven

Intro:
------

e|---------------------------------------------------------------|
B|---------------------------------------------------------------|
G|---------------------------------------------------------------|
D|---------------------------------------------------------------|
A|---------------------------------------------------------------|
E|--0-3-0-3-0-3-0-3-0-3-0-3-0-3-0-3-0-3-0-3-0-3-0-3-0-3-0-3-0-3--|


Estrofas:
---------

E5   A5        A#5                    G5 
Ven, que no me quiero ver abajo nunca más
           D5    C#5             E5  
que lo que dices tú no puede ser verdad
      A5              A#5           G5 
que no es posible que no tenga solución
       D5       C#5                 E5 
aunque tus ojos no me digan más que no.
           A5           A#5            G5 
Que hay un recuerdo que no para de emanar,
            D5          C#5       E5 
que hay una idea que no para de girar
            A5         A#5          G5 
que hay una sangre que no deja de fluir
           D5        C#5            E5 
que hay un deseo que no quiero reprimir.


Intro


Ven, que las paredes no se pueden abrazar 
y yo no voy a golpearlas ni a llorar. 
Que yo por tí no dejaré de respirar 
pero el aire no se puede acariciar. 
Que yo por tí no dejaré de sonreír 
pero la risa no es lo único que hay. 
Que nunca tuve tantas ganas de vivir
         D5           C#5       (lick 1) 
y lo que siento te lo quiero regalar. 


Intro


Ven, que algo muy grande tiene que ocurrir, 
algo que ahora no se puede imaginar 
y aunque seguro que hay un precio que pagar
D5    C#5           (lick 1)
yo no me voy a resistir. 


Final:
------

e|------------------------------------|
B|------------------------------------|
G|------------------------------------|
D|------------------------------------|
A|------------------------------------|
E|--0-3-0-3-0-3-0-3-0-3-0-3-0-3--3-0--|


Lick 1:
-------

e|----------------------|
B|----------------------|
G|----------------------|
D|----------------------|
A|--2----2-2-2-2--2--2--|
E|--2----2-2-2-2--2--2--|



Letra subida por: Anónimo

Discos en los que aparece este acorde: Arzobispofobia

El acorde de Ven de Mama Ladilla es una versión de la canción original realizada por colaboradores/usuarios de Coveralia.

¿Has encontrado algún error en esta página? Envíanos tu corrección del acorde