música
Buscador

Acorde de Ven A Ver Llover - Ana Gabriel

Letra de Ven A Ver Llover



Intro: Bm G D A



B --3-2-0-0-------- --3-2-0-0--------

G ----------2------ ----------2------

D ------------0---- ------------0----

D D



D

Ven conmigo a ver llover

A

Ven, las nubes traen paz por ti

A7 D

Mira como el sol se va.



B --3-2-0-0--------

G ----------2------

D ------------0----

D



Cuando ves llover asi



El amor se vuelve azul

A A7 D D7 G

Lo se, pues mi alma flota.

A D D/Db Bm Bm/A G

Yo solo se que, bonito es ver llover

A

Eso lo se

D D/Db Bm Bm/A G

Pues la lluvia magia es.

A D

Deja pues, mojar tus pies.



B --3-2-0-0--------

G ----------2------

D ------------0----

D



Si la lluvia ves caer



Tienes que saber vivir

A A7 D

Gozar con la lluvia sobre ti.



https://www.coveralia.com/acordes/ven-a-ver-llover-ana-gabriel.php

B --3-2-0-0--------

G ----------2------

D ------------0----

D



Y antes de que salga el sol

A

Con la lluvia hay que bailar los dos

A7 D D7 G

Cuerpo a cuerpo, amandonos.



A

Yo solo se que,

D D/Db Bm Bm/A G

bonito es ver llover

A

Eso lo se

D D/Db Bm Bm/A G

Pues la lluvia magia es.

A D

Deja pues, mojar tus pies.



B --3-2-0---------

G --------2-2-0---

D ----------------

G

A

Yo solo se que,

D D/Db Bm Bm/A G

bonito es ver llover

A

Eso lo se

D D/Db Bm Bm/A G

Pues la lluvia magia es.

A D

Deja pues, mojar tus pies.



B --3-2-0-0--------

G ----------2------

D ------------0----

D





Letra subida por: Anónimo

Discos en los que aparece este acorde: Arpeggios De Amor

El acorde de Ven A Ver Llover de Ana Gabriel es una versión de la canción original realizada por colaboradores/usuarios de Coveralia.

¿Has encontrado algún error en esta página? Envíanos tu corrección del acorde