música
Buscador

Acorde de Uno Tras Otros - Saiko

Letra de Uno Tras Otros

Intro:

A - G#m

Verso:
A
Pasan los meses juntos

llega otro invierno
  G#m
y todo es igual
A
uno tras otros

persiguen rostros
  G#m
sólo una cara que mirar
A
pasan las tardes
G#m
llega la noche

Coro:

E G#m A        D
esperar nunca entender

que somos muchos varios
E G#m A           D
ejecutando el mismo plan

Verso:
Pasan los años
llega un bisiesto
y a celebrar
uno tras otros
Plaza de Armas
lugares comunes
que mirar
hombres oscuros
grises paredes
esas ideas
crisis total

Coro:
Esperar nunca entender
que somos muchos varios
ejecutando el mismo plan

Verso:
Pasan las nubes
llega la lluvia
y nada es igual
uno tras otros
persiguen sueños
y a despertar
pasan las tardes
llega la noche
enamorarse
siempre es mejor
ya somos uno

Coro:
Esperar nunca entender
que somos muchos varios
ejecutando el mismo plan
Esperar nunca entender
que somos muchos varios
ejecutando el mismo plan

Interlude:
F#                    A
Vida quiero hacerte, sólo mía
                      F#
dejar recuerdos en la noche
                      A
que nada nos nuble al despertar
F#                    A
vida quiero hacerte, sólo mía
dejar los cuerpos en la noche
que nada nos nuble al despertar

e---------------------------------------------------------------------
b-----------------------------10/12--10/12--10/12---------------------
g--8-9-8-9-8-9-8-9-8-9-11-9-11-----11-----11-----11-------------------
d-9---9---9---9---9---------------------------------------------------
a---------------------------------------------------------------------
E---------------------------------------------------------------------

e---------------------------------------------------------------------
b-----------------------------10/12p10-----10/12p10-----10/12p10------
g--8-9-8-9-8-9-8-9-8-9-11-9-11--------11p10--------11p10--------11p10-
d-9---9---9---9---9---------------------------------------------------
a---------------------------------------------------------------------
E---------------------------------------------------------------------

Coro:
Esperar nunca entender
que somos muchos varios
ejecutando el mismo plan...(bis)


Letra subida por: Anónimo

Discos en los que aparece este acorde: Todo Saiko

El acorde de Uno Tras Otros de Saiko es una versión de la canción original realizada por colaboradores/usuarios de Coveralia.

¿Has encontrado algún error en esta página? Envíanos tu corrección del acorde