música
Buscador

Acorde de Una Salida - El Canto Del Loco

Letra de Una Salida



{PUNTEADO INTRO}



------------------------------------------------------

6-6-6-6-6-6-6-6-5-5-5-5-2-2-2-2-----------------------

------------------------------------------------------

------------------------------------------------------

------------------------------------------------------

------------------------------------------------------





------------------------------------------------------

6-6-6-6-6-6-6-6-1-1-1-1-2-2-2-2-----------------------

------------------------------------------------------

------------------------------------------------------

------------------------------------------------------

------------------------------------------------------



{PUNTEADO + GUITARRAS} X 2



------------------------------------------------------

6-6-6-6-6-6-6-6-5-5-5-5-2-2-2-2-----------------------

------------------------------------------------------

------------------------------------------------------

------------------------------------------------------

------------------------------------------------------







------------------------------------------------------

6-6-6-6-6-6-6-6-1-1-1-1-2-2-2-2-----------------------

------------------------------------------------------

------------------------------------------------------

------------------------------------------------------

------------------------------------------------------



INTRO ELÉCTRICAS : C#m G# A E G#





C#m G# C#m G#

Tal vez no tengas ganas de saber

C#m G# C#m G#

Tal vez el mundo sufre y no lo quieras comprender

C#m G# C#m G#

Y eres tu otro que no lo quiere ver

C#m G# C#m G#

Que existen más problemas que los tuyos y los de él







C#m G#

Y busco una salida

A E G#

Un mundo lleno de alegría

C#m G#

A ver qué puedes hacer

A E G#

Poner de tu parte para ver





F#m/G# F#m/G# F#m/G#

Tal vez imaginé se arreglaría

F#m G#

https://www.coveralia.com/acordes/una-salida-el-canto-del-loco.php

Y he vuelto a saber

F#m/G# F#m/G# F#m/G#

Que tal vez imaginé que llegaría

F#m G# C#m G#

Y he vuelto a saber porqué ....

C#m G# C#m G# C#m G#

porque.....







C#m G# C#m G#

Con solo darte cuenta bastará

C#m G# C#m G#

Saber que tu has nacido en un preciado lugar

C#m G# C#m G#

Y llego la hora de reconocer

C#m G# C#m G#

Los errores que el hombre ha llegado a cometer







C#m G#

Y busco una salida

A E G#

Un mundo lleno de alegría

C#m G#

A ver qué puedes hacer

A E G#

Poner de tu parte para ver







F#m/G# F#m/G# F#m/G#

Tal vez imaginé se arreglaría

F#m G#

Y he vuelto a saber

F#m/G# F#m/G# F#m/G#

Que tal vez imaginé que llegaría

F#m G#

Y he vuelto a saber







C#m G#

Que busco una salida

A E G#

Un mundo lleno de alegría

C#m G#

A ver qué puedes hacer

A E G#

Poner de tu parte para ver







C#m G#

Que busco una salida

A E G#

Un mundo lleno de alegría

C#m G#

A ver qué puedes hacer

A E G#

Poner de tu parte para ver

Letra subida por: Anónimo

Discos en los que aparece este acorde: A Contracorriente , En Directo Sala Caracol , Pequeños Grandes Directos

El acorde de Una Salida de El Canto Del Loco es una versión de la canción original realizada por colaboradores/usuarios de Coveralia.

¿Has encontrado algún error en esta página? Envíanos tu corrección del acorde