música
Buscador

Acorde de Una Cerveza - Rafaga

Letra de Una Cerveza

(VERSION CON CAPO #3)

Capo:3

-INTRO
       G                     B
Porque vos se nota q no me queres
   C                 G
Y yo me dedico al alcohol

(G B Em Em-D C G D)


      G          B          Em  Em-D   C              G       D
|---------------------------------------------------------------|
|-3-1-0--00000-0-4--00000-0-5--55553-3-1--11111-1h3-1-0--0----3-|
|-------0----------0----------0----------0--------------0--245--|
|---------------------------------------------------------------|
|---------------------------------------------------------------|
|---------------------------------------------------------------|


       G
Una cerveza voy a tomar
       B                              Em   Em-D
Una cerveza quiero tomar y asi olvidarme
C                 G                  D
   De aquella trampa, de aquella trampa mortal

        G
Otra cerveza voy a pedir
        B                            Em   Em-D
Otra cerveza para brindar y no quedarme
C              G               D
   Sin esperanzas, sin esperanzas talvez

D   C   G
Porque vos
                      B
Se nota que no me queres
                       Em
Se nota que ya no hay amor
Em         D                  C
Entonces ya no hay mas que hacer
                     G
Y yo me dedico al alcohol
                      B
Se nota que no me queres
                       Em
Se nota que ya no hay amor
Em         D                  C
Entonces ya no hay mas que hacer
                     G
Y yo me dedico al alcohol
          D
Amor, amor
Final:

     G
Amoooooor……


(VERSION SIN CAPO)

-INTRO
       Bb                     D
Porque vos se nota q no me queres
   D#               Bb
Y yo me dedico al alcohol

(Bb D Gm Gm-F D# Bb F)


      Bb        D         Gm  Gm-F  D#           Bb       F
|---------------2---------3--33331-1------------------------|
|-6-4-3--33333-3---33333-3----------4--44444-6-4-3--3--1346-|
|-------3---------3---------3---------3------------3--------|
|-----------------------------------------------------------|
|-----------------------------------------------------------|
|-----------------------------------------------------------|


       Bb
Una cerveza voy a tomar
       D                              Gm   Gm-F
Una cerveza quiero tomar y asi olvidarme
D#                Bb                 F
   De aquella trampa, de aquella trampa mortal

        Bb
Otra cerveza voy a pedir
        D                            Gm   Gm-F
Otra cerveza para brindar y no quedarme
D#             Bb              F
   Sin esperanzas, sin esperanzas talvez

F   D# Bb
Porque vos
                      D
Se nota que no me queres
                       Gm
Se nota que ya no hay amor
Gm         F                  D#
Entonces ya no hay mas que hacer
                    Bb
Y yo me dedico al alcohol
                      D
Se nota que no me queres
                       Gm
Se nota que ya no hay amor
Gm         F                  D#
Entonces ya no hay mas que hacer
                    Bb
Y yo me dedico al alcohol
          F
Amor, amor
Final:

     Bb
Amoooooor……


Letra subida por: Anónimo

Discos en los que aparece este acorde: Una Cerveza

El acorde de Una Cerveza de Rafaga es una versión de la canción original realizada por colaboradores/usuarios de Coveralia.

¿Has encontrado algún error en esta página? Envíanos tu corrección del acorde