música
Buscador

Acorde de Un Tío Cabal - Los Enemigos

Letra de Un Tío Cabal

Riff principal x2:

e|------------------------| |-----------------9--7--|

B|------------------------| |----------------10--8--|

G|------------------------| |-----------------------|

D|----9---------9---------| |----9------------------|

A|----------7---------7h9-| |----------7------------|

E|-0----7h9---0---7h9-----| |-0----7h9---0----------|



e|------------------|

B|------------------|

G|------------------|

D|----9-------------|

A|----------7-------|

E|-0----7h9---0-----|



e|--------------------------------------------------------------------

B|------------9-9-------------------------9--12b-12-9-9-9----------9--

G|------------9-9---11b-11-9--11b-9-------9-----------9-9----------9--

D|-7s9-9-9-11------------------------9h11---------------9--11b-11b-9--

A|--------------------------------------------------------------------

E|--------------------------------------------------------------------



-----------------------7--|

-----------9-------9---7--|

-----------9-------9---8--|

-9h11-9h11----9h11-9---9--|

-----------------------9--|

-----------------------7--|



Siendo un chaval

bebía vino.

Tenía ese afán

a la hora de comer.



SI

Siendo un chaval

iba con chicas.

Tenía ese afán

al anochecer.



e|---------------------------------------------------------------------

B|--------------9-------------------------9--12b-12-9-9-9-----------9--

https://www.coveralia.com/acordes/un-tio-cabal-los-enemigos.php

G|------------9-9---11b-11-9--11b-9-------9-----------9-9-----------9--

D|-7s9-9-9-11------------------------9h11------------------11b-11-9----

A|---------------------------------------------------------------------

E|---------------------------------------------------------------------



-----------------------------------...------------------------------

-----------9-------9--12b-12-9-9-9-...-12b-12-9-9s12-16-16-16-16p12-

-----------9-------9-----------9-9-...------------------------------

-9h11-9h11----9h11-----------------...------------------------------

-----------------------------------...------------------------------

-----------------------------------...------------------------------



-------------------------------------------------

-12b-12-9-9-9--------9--------------9------9-----

----------9-9--------9--------------9------9-----

---------------9b-9b---9--9h11-9h11---9h11-----9-

-----------------------------------------------9-

-----------------------------------------------7-



Siendo un chaval

iba con chicas.

Tenía ese afán

al anochecer.



Diferente:

Siendo un chaval

bebía vino.

Tenía ese afán

a la hora de comer.



Hoy soy más cabal;

ya soy un hombre.

Me da por beber

al anochecer.



Hoy soy más cabal;

soy todo un hombre.

Busco mujer

a la hora de comer.



(Solo)

Letra subida por: Anónimo

Discos en los que aparece este acorde: Un Tio Cabal , ...alguna Copla De Los Enemigos

El acorde de Un Tío Cabal de Los Enemigos es una versión de la canción original realizada por colaboradores/usuarios de Coveralia.

¿Has encontrado algún error en esta página? Envíanos tu corrección del acorde