música
Buscador

Acorde de Un Bastón Para Tu Corazón - Bunbury

Letra de Un Bastón Para Tu Corazón

 Intro:



|------------7-9-7---------------|-------------------------|

|---------11-------11h12p11-9-11-|-------11----9h11p9------|

|--------------------------------|-11-11----11--------8-11-|

|--8-9-11------------------------|-------------------------|

|--------------------------------|-------------------------|

|--------------------------------|-------------------------|(x2)



|------------------7-7h9p7------|--------------------------|

|----------------9--9------9-11-|-------11-11----9---------|

|--11-8--------9----------------|-11-11-------11--8-11-----|

|-------8-9-11------------------|--------------------------|

|-------------------------------|--------------------------|

|-------------------------------|--------------------------|(x2)



|--------------------|

|--------------------|

|-11-8----------8-11-|

|------11-9---9------|

|-----------9--------|

|--------------------|



SI FA#

El tiempo no cura nada,

SI FA#

el tiempo no es un doctor.

SI FA#

Mala racha, mala estampa

SI 7º

y un bastón para el corazón.

MI DO#m

Con anestesia no hay dolor:

FA# SI

https://www.coveralia.com/acordes/un-baston-para-tu-corazon-bunbury.php

-Póngame la inyección.



SI FA#

El tiempo sólo te sana,

SI FA#

lo que no importa ya.

SI FA#

Los años nos hacen mejores

SI 7º

o no, si puedes encajar.

MI

Los golpes como un hombre,

DO#m FA# SI

un esparring profesional.



DO#m FA#

La vida es póker

SI FA#

y las cartas no las vas a elegir.

DO#m FA#

Los ases en la manga

SI 7º

no te van a seguir.



DO#m FA#

Pues si te falta un bastón para tu corazón;

DO#m FA#

si te falta un bastón para tu corazón;

DO#m FA#

si te falta un bastón para tu corazón,

SI FA# SI

apaga y vámonos.

Discos en los que aparece este acorde: Flamingos

El acorde de Un Bastón Para Tu Corazón de Bunbury es una versión de la canción original realizada por colaboradores/usuarios de Coveralia.

¿Has encontrado algún error en esta página? Envíanos tu corrección del acorde