música
Buscador

Acorde de Typhoon - Crooked Fingers

Letra de Typhoon



Capo 4



Em G C Em

If its summer sing me a song tonight

A Em

Theres a typhoon blowin

A Em

Theres a typhoon blowin

G C Em

Lover says to me I can love you now

A Em

How I loved you then

A Em

How I loved you then



(This is relative to capo, 4th fret is 0 etc.)



E|------------------------------------------------------------------------|

B|------------------------------------------------------------------------|

G|------------------------------------------------------------------------|

D|------------00----02-2-2----0--------h-----0-------------0--------------|

A|----22--00-----2---------2-- 3-2-0-0-2-2------3-2-0-0-0-----3-2-0-0-0---|

E|-00-----------------------------------------------------3---------------|



E|-------------------------------0----------------------------------------|

B|-------------------------------0----------------------------------------|

G|-------------------------------0----------------------------------------|

D|-------------------------------2----------------------------------------|

A|-------------------------------2----------------------------------------|

E|-3-3-3-2-2/7-7--0-0-0-3-3-0-0--0----------------------------------------|



Em G C Em

Hear it in the trees on the breeze tonight

A Em

Breaks her heart not knowin

A Em

Theres are typhoon blowin

Em G C Em

https://www.coveralia.com/acordes/typhoon-crooked-fingers.php

Trouble seldom sees what she leaves behind

A Em

Theres a typhoon blowin

A Em

Theres a typhoon blowin



E|---------------------------------------------------------------------------|

B|---------------------------------------------------------------------------|

G|---------------------------------------------------------------------------|

D|------------00----02-2-2----0---------h-----0-------- ----0----------------|

A|----22--00-----2---------2-- 3-2-0-0-2-2------3-2-0-0-0-----3-2-0-0-0------|

E|-00-----------------------------------------------------3------------------|



E|------------------------------------------------------------------------|

B|------------------------------------------------------------------------|

G|------------------------------------------------------------------------|

D|------------------------------------------------------------------------|

A|------------------------------------------------------------------------|

E|-3-3-3-2-2/7-7--0-0-0-3-3-0-0-------------------------------------------|



D C

See the ghosts of all your old forgotten loves so heavy in the wind

D C

Seems as though they never come to show you what it was that did you in



again

D C

Ease you open oh your shoulders roll oh you know we need you here

G

We need you here

C

We need you here

G

We need you here







Letra subida por: Anónimo

Discos en los que aparece este acorde: Breaks In The Armor

El acorde de Typhoon de Crooked Fingers es una versión de la canción original realizada por colaboradores/usuarios de Coveralia.

¿Has encontrado algún error en esta página? Envíanos tu corrección del acorde