música
Buscador

Acorde de Tu Fiesta - Mama Ladilla

Letra de Tu Fiesta

1°  PARTE:


B5          A5            E5    B5 C5
¡Qué bonita fue tu fiesta!

B5        A5            E5   C5 B5
No tenías porque echarme

B5         A5         E5    B5  C5
y no dejes de avisarme

B5            A5           B5
Cuando montes otra de estas

e [-------------------------------------------------------------------------------------------
B [--5--4--2---------5--4--2-----------8--6--5--6----8--6--5--6--------------------
G [-------------4------------------4-------------------------------------------------------
D [-----------------------------------------------------------------------------------------
A [-------------------------------------------------------------------------------------------
E [-------------------------------------------------------------------------------------------



e [--------------------------------------------------------------------------5--7--5--------------------------------
B [--5--4--2---------5--4--2-----------8--6--5--6----8--6--5--6-----------------7--9--7---------------------
G [-------------4------------------4------------------------------------------------------------8--10--8-----------
D [----------------------------------------------------------------------------------------------------------9--11----
A [-------------------------------------------------------------------------------------------------------------------
E [--------------------------------------------------------------------------------------------------------------------


E  [--5--7--5-------------------------------5--7--5--------------------------------------------------------------
B [-------------7--9--7-------------------------------7--9--7-----------------------------------------------------
G [------------------------8--10--8----------------------------8--10--8---------------------------8--10--11------
D [------------------------------------9------------------------------------9--11-----11--11--11-----------------
A [------------------------------------------------------------------------------------------------------------------
E [-------------------------------------------------------------------------------------------------------------------


2° PARTE:
E5               E5
Había muchos invitados

E5                   F#5
Conocí a Pedro y a Miguel

F#5                 F#5
a Olga, a Luisa y Begoña,

F#5         ***         B5 
a Carlos, a Bea y a Javier,



E5                         E5
a Antonio, a Felipe y a Carola

E5                      F#5
a Ursula a Pedro y a Isabel

F#5                 F#5
y luego todos sonrieron

F#5     ***         B5
y luego a todos olvidé


***: Entre estos 2 acordes el bajo, que es el que los une, hace:
      G[------------------
      D[-------------------
      A[-----------------
      E[---2-2--2-4-6-7-

Para que quede bien hazlo tú con la guitarra y ya está


Letra subida por: Anónimo

Discos en los que aparece este acorde: Directamente De La Basura , Arzobispofobia

El acorde de Tu Fiesta de Mama Ladilla es una versión de la canción original realizada por colaboradores/usuarios de Coveralia.

¿Has encontrado algún error en esta página? Envíanos tu corrección del acorde