música
Buscador

Acorde de Tremendous - Kyle Gass Band

Tuning: Standard



Intro (TAB):



E5 Em CMaj7 C5

e|---------------------------------|---------------------------------|

B|---------------------------------|---------------------------------|

G|---4---4---4---4---0---0---0---0-|---4---4---4---4---0---0---0---0-|

D|-2---2---2---2---2---2---2---2---|---------------------------------|

A|---------------------------------|-3---3---3---3---3---3---3---3---|

E|---------------------------------|---------------------------------|



Asus2 Am7 G5 A5 B5

e|---------------------------------|---------------------------------||

B|---------------------------------|---------------------------------||

G|---4---4---4---4---0---0---0---0-|---0---0---2---4-----------------|| Repeat

D|---------------------------------|---0---0---2---4-----------------|| 2 times

A|-0---0---0---0---0---0---0---0---|-----------0---2-----------------||

E|---------------------------------|-3---3---3-----------------------||



Strumming-Chords



Verse 1

-------

Em C

Driftin´ through the darkness

Am G A5 B5

Blinded by the rain

Em C

Don´t know where I´m going

Am G A5 B5

I just hope I´m not insane - again



Chorus

------

Em C D A

https://www.coveralia.com/acordes/tremendous-kyle-gass-band.php

Tremendous

Em C D A

Tremendous

Em C

Find the truth within you,

D A

´Cause it´s there to be shared.

Em C

You´ve got to believe in something,

D A

But if that´s nothing, don´t be scared.

Em C

These worries and these heros,

D A

But if you´re tempted just beware.

C B

Just beware...

Em

You´re tremendous

C

Tremendous

Am G A5 B5

(Tremendous)



Verse 2

-------

What can last forever?

Not survive a single day.

If mind´s an empty vessel

To which we all must find a way to say...



[Chorus]



[Solo]



Letra subida por: Anónimo

Discos en los que aparece este acorde: Kyle Gass Band

El acorde de Tremendous de Kyle Gass Band es una versión de la canción original realizada por colaboradores/usuarios de Coveralia.

¿Has encontrado algún error en esta página? Envíanos tu corrección del acorde