música
Buscador

Acorde de Trance - Tiger Army

Letra de Trance



B C B (muffle with no chord)2xs

E F E (muffled with no chord) 2xs

B C B

F# G F#

B C B



B B C D D# D C B

Girl just look into my eyes

B B C D D# C E

you're starting to feel hypnotized

E E F G G# G F B

Emeralds, cobras dreams of dyin

B B C D D# D C B

here in death there's no describin

F# F E D B

Forget all you know and come to me right now

B B C D D# D C B

mezmorized by fires in hell

B B C D D# D C E

now you are under my spell

E E F G G# G F B

come closer and take my hand

B B C D D# D C B

you are now under my command

F# F E D B

everything is spinning as you fall into a trance...

F#

Voodoo Power!



Bridge:



B C D C B C B C (2XS)



E F G F E F E F



B C D C B C B C



F# G A F# G F# G F#



B C D C B C B C



SOLO:



e-------------------------------7~~--

B--------------------7-7--------7~~--

G---------------7-9------9-7----7~~--

D----9----9-10---------------9-------

A--9---------------------------------

E------------------------------------



https://www.coveralia.com/acordes/trance-tiger-army.php
e-----------------------7~~

B-----------------------8~~

G----9-10-9-7-9-10-9-7--9~~

D--------------------------

A--------------------------

E--------------------------



e-----------------------------

B-----------------------------

G-----------------------------

D--------7--------------10-9~~

A--9-10-----10-9--------------

E-----------------10-9--------



E



B



E



G F# G F# G F# G F#



F E F E F E



C B



C B



C B



B B C D D# D C B

feel your world drainin away

B B C D D# D C E

you didn't it anyway

E E F G G# G F B

leave it all behind and don't look back

B B C D D# D C B

into my coffin cadillac

F# F E D B

a possession of your soul and only the Devil's caught in your trance

C B

trance

C B

trance

C B

trance







Letra subida por: Anónimo

Discos en los que aparece este acorde: Tiger Army

El acorde de Trance de Tiger Army es una versión de la canción original realizada por colaboradores/usuarios de Coveralia.

¿Has encontrado algún error en esta página? Envíanos tu corrección del acorde