música
Buscador

Acorde de Todos Estão Mudos - Pitty

Letra de Todos Estão Mudos

(intro) 



Em G D A

E |---0--2-3-0---------|--0--2-3-2--3--2--|

B |------------3--0-3--|------------------|

G |--------------------|------------------|

D |--------------------|------------------|

A |--------------------|------------------|

E |--------------------|------------------|



Em G A B

E |---0--2-3-0---------|--0--2-3-5--7-----|

B |------------3--0-3--|------------------|

G |--------------------|------------------|

D |--------------------|------------------|

A |--------------------|------------------|

E |--------------------|------------------|



Em G

Já não ouço mais clamores

D Am

Nem sinal das frases de outrora

Em G

Os gritos são suprimidos

A B

O corvo diz: "nunca mais"



https://www.coveralia.com/acordes/todos-estao-mudos-pitty.php

Em G

Não parece haver mais motivos

D Am

Ou coragem pra botar a cara pra bater

Em G

Um silêncio assim pesado

A B

Nos esmaga cada vez mais



C G

Não espere, levante

Bm Em

Sempre vale a pena bradar

C

É hora

G B

Alguém tem que falar



Em G

Há quem diga que isso é velho

D Am

Tanta gente sem fé num novo ar

Em G

Mas existe o bom combate

A B

É não desistir sem tentar

Letra subida por: Anónimo

Discos en los que aparece este acorde: Chiaroscuro

El acorde de Todos Estão Mudos de Pitty es una versión de la canción original realizada por colaboradores/usuarios de Coveralia.

¿Has encontrado algún error en esta página? Envíanos tu corrección del acorde