música
Buscador

Acorde de Todo Vuelve - Che Sudaka

Letra de Todo Vuelve



Acordes durante la introducción: Am, G.





E|--12--------10------12-------8---8-------7---7---------

B|--13--------12------13-------10--10------8---8---------

G|-------------------------------------------------------

D|-------------------------------------------------------

A|-------------------------------------------------------

E|-------------------------------------------------------



E|--12--------10------12-------8---8-------7-------------

B|--13--------12------13-------10--10------8-------------

G|-------------------------------------------------------

D|-------------------------------------------------------

A|-------------------------------------------------------

E|-------------------------------------------------------



Am

Todo vuelve si fue cierto



Dm

Siempre vuelve la verdad



Am

Si hubo un tiempo que fue bueno



E

Si hubo un tiempo de alegría



Dm G Am

Si hubo vida sé que un día volverá [x2]



G

Como la marea

C

Que viene y se va



G

Como la luna

C

Que no esta y esta

Dm Am

Como la sonrisa queda en el alma

https://www.coveralia.com/acordes/todo-vuelve-che-sudaka.php



E Am G

Para siempre alli permanecera



Am, G, Am, G??



TODO VUELVE

Otra vez...





(((Mismos acordes de arriba??)))



Volverá y será de repente

Te mirara de frente

Tu pasado cruel

Si hubo vida sé que un día volverá

Volverá no te quedes ausente

Lo que te mata te aprende

Y te hace más fuerte

Si hubo vida sé que un día volverá

Como la marea

Que viene y se va

Como la luna

Que no está y esta

Como la sonrisa queda en el alma

Para siempre allí permanecerá

Como las caricias quedan en el alma

Para siempre allí permanecerán



(((Desde aquí solo se toca Am y G)))



TODO VUELVE

Oye mira todo vuelve...todo vuelve

Que no te pille de frente

Mira bien a tu presente

Todo vuelve todo

Todo vuelve

Huye huye

Huye que te coge la muerte

TODO VUELVE







Letra subida por: Anónimo

Discos en los que aparece este acorde: Mirando El Mundo Al Reves , 1111 Lives

El acorde de Todo Vuelve de Che Sudaka es una versión de la canción original realizada por colaboradores/usuarios de Coveralia.

¿Has encontrado algún error en esta página? Envíanos tu corrección del acorde