música
Buscador

Acorde de Todo Terminó - Viejas Locas

Letra de Todo Terminó



Intro: (B - C# - E - B) x2



B C# E B

e|-------------------------------------------------|

B|-------------------------------------------------|

G|--4-----44---------66-----66---------99-99---44--|

D|--4-----44-----4---66-----66-----6---99-99---44--|

A|--2-2s6-22-4h6---6-44-6s8-44-6h8---8-77-77---22--|

E|-------------------------------------------------|



B C#

e|--14---14-14--14-----14---------16-----16-----------16---------|

B|--14b-----14b----14b----14--16b----16b----16b16b16b----16-14---|

G|---------------------------------------------------------------|

D|---------------------------------------------------------------|

A|---------------------------------------------------------------|

E|---------------------------------------------------------------|



E B

e|-----------------------------------------|

B|--12--12----12-----12-12-9-9-7---7--7~---|

G|--11b-11b---11b-9--11-11-9-9-8---8--8~---|

D|-----------------------------------------|

A|-----------------------------------------|

E|-----------------------------------------|



B

Nada que ver tengo en este lugar

C#

todos son tan buenos,

todo es tan normal

E B

y yo estoy tan aburrido.



B

Bien sabés que me cansé

C#

que en tu mundo no encajé

E B (*1)

prefiero estar con mis amigos.



(B - C# - E - B (*2))



B

No voy a ser el placer

C#

De una puta con poder

E B

Que me clave los colmillos.



B

Porque en el barrio estoy mejor

C#

Tengo vicio, tengo amor,

E B (*3)

Y una vida enloqueciéndome.





C# E B (*4)

Y espero que lo entiendas

C# E

Ya no vengas por mí



B C#

Porque nena, todo terminó

E B

Todo terminó, ya todo terminó

B C#

nena, todo terminó

E B

Todo terminó, ya todo terminó



Solo de guitarra

Base: (B - C# - E - B) x2



e|-----------------------------------------------------------|

B|-----7----7----7-----------------9----9----9---------------|

G|--6b---6b---6b---6brp4-6-4----8b---8b---8b---8brp6-8-6-----|

D|---------------------------6---------------------------8---|

A|-----------------------------------------------------------|

E|-----------------------------------------------------------|

https://www.coveralia.com/acordes/todo-termino-viejas-locas.php



e|------------------------------------------------------|

B|------12------12-----12--7--7-------------------------|

G|--11b-----11b----11b-----6b---6p4---------------4-----|

D|----------------------------------6-6p4-----4-6---6---|

A|----------------------------------------6-6-----------|

E|------------------------------------------------------|



e|-----7-7----7-7----7-7----7-7----7----7---|

B|-----7-7----7-7----7-7----7-7----7----7---|

G|--9b-----9b-----9b-----9b-----9b---9b-----|

D|------------------------------------------|

A|------------------------------------------|

E|------------------------------------------|



e|------9-9-----9-9-----9-9-----9-----9-----1212-9------1212-9-------|

B|------9-9-----9-9-----9-9-----9-----9-----1212-9-12-9-1212-9-12----|

G|--11b-----11b-----11b-----11b---11b---11b--------11-9--------11-9--|

D|-------------------------------------------------------------------|

A|-------------------------------------------------------------------|

E|-------------------------------------------------------------------|



e|-------------------------|

B|-----------7-7-----------|

G|------4-6b-----6br-6-4---|

D|--4h6--------------------|

A|-------------------------|

E|-------------------------|



C# E B (*5)

Y espero que lo entiendas

C# E

Ya no vengas por mí



(B - C# - E - B) lento, casi arpegiando

(B - C# - E - B) con acompañamiento





_______

B C# |

Porque nena, todo terminó |

E B |___ esto va con el

Todo terminó, ya todo terminó | acompañamiento

B C# |

nena, todo terminó ______________|



B C#

Y nena, todo terminó

E B

Todo terminó, ya todo terminó

B C#

Y nena, todo terminó

E B

Todo terminó, ya todo terminó...



__________________________________________________________________



*1 *2

e|----------------------------|---------------|

B|----------7-----------------|-------7-------|

G|--6b-6b6b---6-6br-4-6b-4~---|--6b___--6-4---|

D|----------------------------|---------------|

A|----------------------------|---------------|

E|----------------------------|---------------|



*3 *4 *5

e|----------------------------|------------------|-------------|

B|----------------------------|------------------|--------7----|

G|------2-2-2h4-2---6b--2s4---|--6b-4--6b-6b-4---|-6b_____--4--|

D|--2h4-----------4-----------|------------------|-------------|

A|----------------------------|------------------|-------------|

E|----------------------------|------------------|-------------|



Acompañamiento

e|-------------------------------------------------------------|

B|-------------------------------------------------------------|

G|-------------------------------------------------------------|

D|-----------4-6b-4------------6-8b-6---------11b-11-9----9~---|

A|--4s6--4s6--------6-6s8--6s8--------8-8s11-----------11------|

E|-------------------------------------------------------------|

Letra subida por: Anónimo

Discos en los que aparece este acorde: Hermanos De Sangre

El acorde de Todo Terminó de Viejas Locas es una versión de la canción original realizada por colaboradores/usuarios de Coveralia.

¿Has encontrado algún error en esta página? Envíanos tu corrección del acorde