música
Buscador

Acorde de Todas Esas Cosas - Smitten

G          Am 

Yo sabía que dirías

Bm C

Todas esas cosas

G Am7 Bm C

Que al final no dicen nada

G Am

Como un tonto corro al verte

Bm C

Vuelvo casi siempre

G Am7 G

Anestesiado y sin dirección.



E--------------------------------------------

B--------------------------------------------

G--------------------------------------------

D-----------------------------2-4-5---2------

A-----2-----2-3---2-3-5-2-3-5-------5---3-5-2

E-3-5---3-5-----5----------------------------



E--------------------------------------------

B--------------------------------------------

G--------------------------------------------

D-----------------------------2-4-5----------

A-----2-----2-3---2-3-5-2-3-5-------5-3-2-0--

E-3-5---3-5-----5---------------------------3





G Am Bm C

Volverás a mí aunque sea

G Am Bm

De ésta formas de decir

C G Am Bm

Lo que quieras si perdiste la razón

C G Am Bm

En algún lugar estamos vos y yo,

C

Preguntando por los dos.





G Am

Yo sabía que dirías

Bm C

Todas esas cosas

G Am7 Bm C

Que al final no dicen nada

G Am

Como un tonto corro al verte

Bm C

Vuelvo casi siempre

G Am7 G

Anestesiado y sin dirección.



E--------------------------------

B--------------------------------

G--------------------------------

D-----------------------------2-- (x2)

A-----2-----2-3---2-3-5-2-3-5---3

E-3-5---3-5-----5----------------



E--------------------------------------------

B--------------------------------------------

G--------------------------------------------

D-----------------------------2-4-5----------

A-----2-----2-3---2-3-5-2-3-5-------5-3-2-0--

E-3-5---3-5-----5---------------------------3





https://www.coveralia.com/acordes/todas-esas-cosas-smitten.php



G Am Bm C

Si perdí mi yo no sabía que eras

G Am Bm C

Mala suerte hoy que no sé

G Am Bm

Ni donde estoy mejor sin vos

C G Am Bm

De mí sólo queda nada más por hoy,

C

Que salir a caminar.





G Am

Yo sabía que dirías

Bm C

Todas esas cosas

G Am7 Bm C

Que al final no dicen nada

G Am

Como un tonto corro al verte

Bm C

Vuelvo casi siempre

G Am7 G

Anestesiado y sin dirección.



E--------------------------------

B--------------------------------

G--------------------------------

D-----------------------------2-- (x2)

A-----2-----2-3---2-3-5-2-3-5---3

E-3-5---3-5-----5----------------



E--------------------------------------------

B--------------------------------------------

G--------------------------------------------

D-----------------------------2-4-5----------

A-----2-----2-3---2-3-5-2-3-5-------5-3-2-0--

E-3-5---3-5-----5---------------------------3





G Am Bm C G

Yo sabía que dirías todas esas cosas,

Am7 G C

Todas esas cosas...





G Am Bm C G

Yo sabía que dirías todas esas cosas,

Am7 G C

Todas esas cosas...







G Am

Yo sabía que dirías

Bm C

Todas esas cosas

G Am7 Bm C

Que al final no dicen nada

G Am

Como un tonto corro al verte

Bm C

Vuelvo casi siempre

G Am7 G

Anestesiado y sin dirección

Letra subida por: Anónimo

Discos en los que aparece este acorde: En Algun Lugar

El acorde de Todas Esas Cosas de Smitten es una versión de la canción original realizada por colaboradores/usuarios de Coveralia.

¿Has encontrado algún error en esta página? Envíanos tu corrección del acorde