música
Buscador

Acorde de To Rid The Disease - Opeth

Letra de To Rid The Disease







Intro:



|-----6-----6-----5-----5-----5---|-----5-----5-----3-----3-----3---|

|---3---3-----3-----3-----3-----3-|---2---2-----2-----2-----2-----2-|

|-0-------0-----0-----0-----0-----|-0-------0-----0-----0-----0-----|

|---------------------------------|---------------------------------| x 2

|---------------------------------|---------------------------------|

|---------------------------------|---------------------------------|



--Start singing the lyrics while playing the above. Play it once per verse like:



|-----6-----6-----5-----5-----5---|-----5-----5-----3-----3-----3---|

|---3---3-----3-----3-----3-----3-|---2---2-----2-----2-----2-----2-|

|-0-------0-----0-----0-----0-----|-0-------0-----0-----0-----0-----|

|---------------------------------|---------------------------------|

|---------------------------------|---------------------------------|

|---------------------------------|---------------------------------|

There's ... nobody here,



there's nobody near

I try not to care,

dead eyes always stare



-Repeat intro x2 - no voice



Let these matters be, (don't trust what you see)

Take hold of your time, (step into the line)



Chorus



Em D A C

There's innocence torn from its maker



Em D A C

And stillborn, the trust in you



Em D A C

https://www.coveralia.com/acordes/to-rid-the-disease-opeth.php

This failure has made the creator



Em D A C

So would you tell him what to do (would you..)







-Repeat intro x2 and go again like on the first part..



Leave your mark upon, the head of someone

Who'll cry for his state, we know it's too late

I turn round to see, what was meant to be

Faint movement release, to rid the disease



Chorus



Em D A C

There's innocence torn from its maker



Em D A C Em

And stillborn, the trust in you (I have lost all trust I had in you)



Em D A C

This failure has made the creator



Em D A C

So would you tell him what to do



Outro:



Em - D - A - C



Em - D - A C Em

(I have lost all trust I had in you..)











Letra subida por: Anónimo

Discos en los que aparece este acorde: Damnation

El acorde de To Rid The Disease de Opeth es una versión de la canción original realizada por colaboradores/usuarios de Coveralia.

¿Has encontrado algún error en esta página? Envíanos tu corrección del acorde