música
Buscador

Acorde de Tierra Santa - Tierra Santa

Letra de Tierra Santa

Logicamente los acordes van tocados en quintas.





Intro:

DOm DOm DOm SIb MIb x2





E------------------------------------------------

B------------------------------------------------

G------------------------------------------------

D-5----------5-5-3-3-----5----------5-5-3-3------

A-3--3-3-3-3---------6-5-3--3-3-3-3---------6-5--

E------------------------------------------------





-------------------------------------||

-------------------------------------||

-------------------------------------|| x2

-5---------5-5-3-3-----3------8------||

-3-3-3-3-3---------6-5-1--1-1-6--6-6-||

-------------------------------------||













DOm SIb LAb SOL

La historia cuenta que un rey a las cruzadas se fue a defender a su dios



DOm SIb LAb SOL

espada en mano mató, muerte y desolación fue sembrando a su paso



DOm LAb SIb SOL

proclamó su religiooon con estandarte de fé



DOm LAb FAm SOL

y con la excusa expulsó a su enemigo el infiel.





DOm SIb LAb

Tierra santa santa tierra, por ti mi vida he de dar



DOm SIb LAb

se oyen gritos de batalla, pero un nombre se oira



DOm LAb SIb SOL

Tierra santa santa tierra, por ti mi vida he de dar



DOm LAb FAm SOL

se oyen gritos de batalla, pero un nombre se oiraaaaa ah





DOm SIb DOm

Tierra santa!! por ti mi vida he de dar



DOm SIb DOm

Tierra santa!! por ti mi vida he de dar



DOm LAb FAm SOL

Tierra santaaaaa!! por ti mi vida he de dar



https://www.coveralia.com/acordes/tierra-santa-tierra-santa.php





Antes del solo:



DOm SIb DOm SIb LAb SIb

E-----------------------------------------------------------------||

B-----------------------------------------------------------------||

G------7--------------7------7--8---7---------------7-10-8-7------|| x2

D-10------10--8--10------10------------10--8---8-10----------10-8-||

A-----------------------------------------------------------------||

E-----------------------------------------------------------------||







DOm SIb DOm SIb LAb

E------10---------------10------10--11--10----------

B-13-------13--11--13-------13--------------13--11--

G---------------------------------------------------

D---------------------------------------------------

A---------------------------------------------------

E---------------------------------------------------





SIb

-------10-13-11-10-------|

-11-13-------------13-11-|

-------------------------|

-------------------------|

-------------------------|

-------------------------|







DOm SIb DOm SIb LAb

E------10---------------10------10--11--10----------

B-13-------13--11--13-------13--------------13--11--

G---------------------------------------------------

D---------------------------------------------------

A---------------------------------------------------

E---------------------------------------------------





SIb SOL LAb SIb

-------10-13-11-10------------|

-11-13-------------13-11------|

------------------------------|

------------------------------|

------------------------------|

------------------------------|













El acompañamiento del solo es igual que el de la letra, y esa es la pieza.







DOm SIb LAb SOL

Tieerra Saanta

Letra subida por: Anónimo

Discos en los que aparece este acorde: , Medieval , , Las Mil Y Una Noches , , 1997-2007

El acorde de Tierra Santa de Tierra Santa es una versión de la canción original realizada por colaboradores/usuarios de Coveralia.

¿Has encontrado algún error en esta página? Envíanos tu corrección del acorde