música
Buscador

Acorde de Then The Letting Go - Bonnie Prince Billy

Letra de Then The Letting Go





Tuning: Standard (Capo 1)



All tabs/chords relative to Capo 1





Intro:



e|-----------------------------------------------------------|

B|-----------------------------------------------------0-----|

G|---2---2---2---2---2---2---2--------2------------2------2--|

D|-2---2---2---2---2---2---2---2--0h2---2----0h2-------------|

A|----------------------------------------0------0---0----0--|

E|-----------------------------------------------------------|





Verse:



e|-----------------------------------------------------------------|

B|-----------------------------------------------------------0-----|

G|--------------------------------------2----------------2------2--|

D|---2---2---2---2---2---2---2----0h2---------2----0h2-------------|

A|-0---0---0---0---0---0---0---0------0---(0)---0------0---0----0--|

E|-----------------------------------------------------------------|



There was someone a long time ago

(Come follow me here and then we'll go)

Who played with me whenever it snowed

(To a fortress in the snow)

She lived nearby and I'd walk her home

(On these bushes berries grow)



Asus2 F# B E

Then I would go to my own house alone





Then one December bad weather came on

(We will eat them seeds and all)

I went to our shared place and nobody came

(Hand in my hand, nose and nose)

And it was dark before I made my way home

(Shall we marry or shall we go?)



Asus2 F# B E

And sat at my window and watched the snow come



D A

When I had children I asked them to stay

E D

https://www.coveralia.com/acordes/then-the-letting-go-bonnie-prince-billy.php

When the weather turned bad, indoors to play

A E

I tried to make games and be a bold friend

D

Though strong was the call of the harsh winter wind



They ran out of doors and shouted and sang

(They won't find us from the road)

Their voices went soft as they ran further on

(Thicker branches tangled so)

Till only a trace of their singing did hang

(Flashlights fading, the fire low)

Asus2 F# B E

On my eyes and my whiskers where they didn't belong



D A

Then my someone from childhood came into the room

E D

And lay her wet head on my withering feet

A E

Her tears wet my lap and she fell asleep soon

D

Saying nothing to me just going to sleep





[Bridge:]



e|-------------------------------------------------------------|

B|-------------------------------------------------------0-----|

G|--------------------------------------2------------2------2--|

D|---2---2---2---2---2---2---2----0h2-----2----0h2-------------|

A|-0---0---0---0---0---0---0---0------0-----0------0---0----0--|

E|-------------------------------------------------------------|



D A E

D A E

D





Oh how my head burned as I sat unprepared

(Come marry me here and then we'll go)

I was rendered blind and of the world unaware

(To the places in the snow)

In the quiet of the day, well, I laid her low

(You afire, me aglow)

Asus2 F# B E

And used her skin as my skin to go out in the snow





Letra subida por: Anónimo

Discos en los que aparece este acorde: The Letting Go , Wilding In The West

El acorde de Then The Letting Go de Bonnie Prince Billy es una versión de la canción original realizada por colaboradores/usuarios de Coveralia.

¿Has encontrado algún error en esta página? Envíanos tu corrección del acorde