música
Buscador

Acorde de The Temple Of The Living God - Neal Morse



G - 320030



Capo on 4th fret.



Em F#m

e|-----------------|-----------------|

B|-----------------|-----------------|

G|-------0---------|--------0-2---2--|

D|-----2---4----4--|------2-----4----|

A|---2-------4--4--|----2------------|

E|-0---------------|--0--------------|



e|-------------------------------------0-|

B|-------------------------------------0-|

G|--------2--0---0------------0--------2-|

D|------4------2---0------0-2---4--0---2-|

https://www.coveralia.com/acordes/the-temple-of-the-living-god-neal-morse.php

A|----3-----------------2--------------0-|

E|--2----------------------------------0-|



Em C G Em G

And then after all, with our backs against the wall

Cmaj7 A5 Em

We seek the temple of the living God.

C G Em G

And outside the gate the cripples sit and wait

Cmaj7 A5 Em

To see the temple of the living God

Cmaj7 A5 Em

To see the temple of the living God

...



Letra subida por: Anónimo

Discos en los que aparece este acorde: ? , ?

El acorde de The Temple Of The Living God de Neal Morse es una versión de la canción original realizada por colaboradores/usuarios de Coveralia.

¿Has encontrado algún error en esta página? Envíanos tu corrección del acorde