Quantcast
música
Buscador

Acorde de The Other Side Of Life - The Moody Blues

Letra de The Other Side Of Life

(intro bass 4x) 



----------------------------------------------------------------------|

----------------------------------------------------------------------|

----------------------------------------------------------------------|

-----------0-2--------------------------------------------------------|

---------2------------------------------------------------------------|

---0-0-0--------------------------------------------------------------|



(intro guitar)

-----0-3-5-7---------7-5-3-5-3--------3-3-3-3-3-3---------------------|

----------------------------------------------------------------------|

----------------------------------------------------------------------|

----------------------------------------------------------------------|

----------------------------------------------------------------------|

----------------------------------------------------------------------|



(verse)

Em G

The atmosphere on the streets tonight,

Am Em

Is the driving beat of the world,

Em G

The word down here on the streets tonight,

Am Em

Is the truest music you?ve heard.



https://www.coveralia.com/acordes/the-other-side-of-life-the-moody-blues.php

Dsus2 D

So take your share of the gifts that are there,

Dsus2 D

They all belong to you,

Dsus2 D

And come what may at the break of each day,

F

We all begin anew once more, we all begin anew.



Em D

Baby, baby, baby let?s investigate,

Em D

The other side of life tonight,

Em D

The lovers and the fighters and the risks they take,

Em D Em

Are on the other side of life tonight.



Dsus2 D

Let?s lose our way go completely astray,

Dsus2 D

And find ourselves again,

Em D

Y?know the only way to get there is to take that step

Em D Em

To the other side of life tonight.

Letra subida por: Anónimo

El acorde de The Other Side Of Life de The Moody Blues es una versión de la canción original realizada por colaboradores/usuarios de Coveralia.

¿Has encontrado algún error en esta página? Envíanos tu corrección del acorde