música
Buscador

Acorde de The Evil Addiction Destroying Machine - Mortification

 (riff 1) 



E |------------------------------------------------------|

B |------------------------------------------------------|

G |--9-10-9-10--10-12-10-12--12-14-12-14--10-12-9-10-8---|

D |--9-10-9-10--10-12-10-12--12-14-12-14--10-12-9-10-8---| (4x)

A |--7-8--7-8---8--10-8--10--10-12-10-12--8--10-7-8--6---|

E |------------------------------------------------------|



( E9 G9 E9 C9 B9 ) (2x)

( A#9 B9 A#9 D#9 D9 ) (2x)



(riff 2)

E |--X---X-X-X-X-X--|

B |--X---X-X-X-X-X--|

G |--1---X-X-X-X-X--| (3x)

D |--2---5-5-5-5-5--|

A |--2---5-5-5-5-5--|

E |--0---3-3-3-3-3--|



(riff 3)

E |---------------------|

B |---------------------|

G |--8-8----------------|

D |--8-8-9-9-10-10-8-8--|

A |--6-6-9-9-10-10-8-8--|

E |------7-7-8--8--6-6--|



(riff 3)

Bad addiction the evil Weeping to torture

D#9 D9 D#9 F#9

Incessant drug addiction taken by the weak violent ramifications.

D#9 D9 D#9 F#9

Are they just the weakest link of pharmachia conspiracies



(riff 3 - 4x)



(riff 4)

E |---------------------|

B |---------------------|

G |--8-8-9-9-10-10-8-8--|

D |--6-6-9-9-10-10-8-8--|

A |------7-7-8--8--6-6--|

E |---------------------|

https://www.coveralia.com/acordes/the-evil-addiction-destroying-machine-mortification.php



(riff 4)

Bad addiction the evil Weeping to torture

(riff 3)

The machine destroying crushing the system



D#9 D9 D#9 F#9

You must overcome being taken to trial. You kill the evil desire

D#9 D9 D#9 F#9

You must forgive the system that stole your control And then kill the demons pushing you to fall



(riff 2 - 3x)

(riff 1 - 4x)



(solo) E9 G E9 C9 B9 (2x)

A#9 B9 A#9 D#9 D9 (2x)



(riff 4)

Bad addiction the evil Weeping to torture

(riff 3)

The machine destroying crushing the system



D#9 D9 D#9 F#9

All through the ages given men to trial Countless pharmaceuticals to relieve the sickness

D#9 D9 D#9 F#9

But as the goes on and on some are put to trial But in the failure of a drug is a man a martyr

(riff 2 - 1x)

Of a system

(riff 2 - 1x)

of a conspiracy



(riff 2)

(riff 1 - 4x)



(riff 2)

A casualty of war

(riff 2)

against the human soul

(riff 2)

An incessant plot

(riff 2)

to make you deadly sick

...and burn your soul

Letra subida por: Anónimo

Discos en los que aparece este acorde: The Evil Addiction Destroying Machine

El acorde de The Evil Addiction Destroying Machine de Mortification es una versión de la canción original realizada por colaboradores/usuarios de Coveralia.

¿Has encontrado algún error en esta página? Envíanos tu corrección del acorde