música
Buscador

Acorde de The Dilemma - You Me At Six

Letra de The Dilemma

Verse 1 



C#m Ab/C F# Abm

Let me tell you a story about a boy and a girl,

C#m Ab/C A B

A very different version than you've ever heard.

C#m Ab/C F# Abm

Ok so I'm lying but all I'm trying to say,

C#m Ab/C A B

This isn't about the one that got away.



C#m Ab/C F# Abm

Watch it from your ivory tower,

C#m Ab/C A B

Paint the sky grey, like a coward.

C#m Ab/C F# Abm

(How long you got?) I can go for hours.

C#m Ab/C A B

A sweet little tale that ended sour,

F#m

My words will ring in your ears.









C#m A E B

Take my advice and leave right now. You gotta find a way to sell yourself,

C#m A E B

To someone who cares, to someone desperate.



C#m Ab/C F# Ab

C#m Ab/C A B





Verse 2



C#m Ab/C F# Abm

First came along my friends were dubious,

C#m Ab/C A B

She cared for the stage, not who she was with.

C#m Ab/C F# Abm

I brushed it off and hit the road,

C#m Ab/C A B

Only to hear she's in the other's pose.



C#m Ab/C F# Abm

It was the end of summer in 2009,

C#m Ab/C A B

I wasn't really looking but what did I find?

C#m Ab/C A B

A golden girl with golden hair,

C#m Ab/C F# Abm

When I was with her everybody stared.





Pre-Chorus



A B C#m B A

And I couldn't believe my luck had changed.

E B

https://www.coveralia.com/acordes/the-dilemma-you-me-at-six.php

And I asked so nice but I wouldn't stay





C#m A E B

Take my advice and leave right now. You gotta find a way to sell yourself,

C#m A E B

To someone who cares, to someone desperate.



C#m A

Beggars can't be choosers, so I wouldn't choose you,

E B C#m

I've got better things to do with my time

A E B C#m

I would bear in mind, what was in this line



Bridge



Na na na na na na na na na, na na na na na na na.

Na na na na na na na na na, na na na na na na na.



She said who do you, she said who do you,

She said who do you, she said who, do you!?



Who, do you? who do you?

I said who do you, I said who do you.



Who do you, who do you, think you are,

Who do you, who do you, think you are,

Who do you, who do you, think you are,

Who do you, who do you, think, you, are!





e|-------------------------|-------------|--------------------|

B|-------------------------|-------------|--------------------|

G|-------x2----------------|----x2-------|--------------------|

D|-------------------------|-------------|--------------------|

A|-424-424-424--424-424-4~-|-424-424-424-|-424-424--4-2-------|

D|-------------------------|-------------|--------------4-3-2-|



e|-------------|-(1)-|-(2)-|-(3)-|-(4)---|

B|-------------|-----|-----|-----|-------|

G|-------------|-----|-----|-----|-------|

D|-------------|-7^--|-9^--|-11^-|-------|

A|-979-979-979-|-7^--|-9^--|-11^-|-4-2---|

D|-979-979-979-|-----|-----|-----|-----4-|



e|-------------|-(1)-|-(2)-|-(3)-|-(4)----------|---|

B|-------------|-----|-----|-----|--------------|-3-|

G|-------------|-----|-----|-----|--------------|-4-|

D|-------------|-7^--|-9^--|-11^-|------x3------|-4-|

A|-979-979-979-|-7^--|-9^--|-11^-|-4-2----------|-2-|

D|-979-979-979-|-----|-----|-----|-----4-3-2-0--|---|







C#m Ab/C F# Ab

C#m Ab/C A B

C#m Ab/C F# Ab

C#m Ab/C A B C#m

Letra subida por: Anónimo

Discos en los que aparece este acorde: Sinners Never Sleep

El acorde de The Dilemma de You Me At Six es una versión de la canción original realizada por colaboradores/usuarios de Coveralia.

¿Has encontrado algún error en esta página? Envíanos tu corrección del acorde