música
Buscador

Acorde de The Clairvoyant - Iron Maiden

Letra de The Clairvoyant

Intro: D - C9 - Gm9 - Bb - C 





Dm C9

Feel the sweat break on my brow

Gm9 Bb! C

Is it me or is it shadows that are dancing on the walls ?



Dm Cadd9!

Is it a dream or is it now

Gmadd9 Bb C

Is this a vision or nor-mali- ty I see be- fore my eyes.





Dm/A Gm/Bb C/D (bass G) Dm/A

E------------------|-----8------10---|------------------|------------------

B--10--8------10---|-11--------------|--8-----------8---|-10--8------------

G------------------|-----------------|-----10-----------|-------------10---

D------------------|-----------------|------------------|------------------

A------------------|-----------------|------------------|------------------

E------------------|-----------------|------------------|------------------



Dm/A Gm/Bb C/D (bass plays G)

E------------------|-----8------10---|--3---------------|------------------

B--10--8------10---|-11--------------|--5---------------|------------------

G------------------|-----------------|--5---------------|------------------

D------------------|-----------------|--0---------------|------------------

A------------------|-----------------|------------------|------------------

E------------------|-----------------|------------------|------------------





Dm Cadd9

I wonder why I wonder how,

Gmadd9 Bb C

that it seems that the power is getting stronger ev'ry day



Dm Cadd9

I feel a strength an inner fire,

Gmadd9 Bb C

but I am scared I wont be able to con- trol it anymore



Cm/G Fm/Ab Bb/C (bass F) Cm/G

E------------------|-----------------|------------------|------------------

B------------------|------11-----13--|------------------|------------------

G--12---10-----12--|-13--------------|-10-----------10--|--12--10----------

D------------------|-----------------|------13----------|--------------13--

A------------------|-----------------|------------------|------------------

E------------------|-----------------|------------------|------------------



Cm/G Fm/Ab Bb/C (bass F) (slower)

E------------------|-----------------|------------------|------------------

B------------------|------11-----13--|------------------|------------------

G--12---10-----12--|-13--------------|-10---------------|--\---------------

D------------------|-----------------|------------------|------------------

A------------------|-----------------|------------------|------------------

E------------------|-----------------|------------------|------------------



Dm/A Gm/Bb C/D (bass G) Dm/A

E------------------|-----8------10---|------------------|------------------

B--10--8------10---|-11--------------|--8-----------8---|-10--8------------

G------------------|-----------------|-----10-----------|-------------10---

https://www.coveralia.com/acordes/the-clairvoyant-iron-maiden.php

D------------------|-----------------|------------------|------------------

A------------------|-----------------|------------------|------------------

E------------------|-----------------|------------------|------------------



Dm/A Gm/Bb C/D (bass plays G)

E------------------|-----8------10---|--3---------------|------------------

B--10--8------10---|-11--------------|--5---------------|------------------

G------------------|-----------------|--5---------------|------------------

D------------------|-----------------|--0---------------|------------------

A------------------|-----------------|------------------|------------------

E------------------|-----------------|------------------|------------------



D D5+ C/D D D D5+ C D

There's a time to live and a time to die when it's time to meet the ma-ker.



D D5+ C/D D D D5+ C D

There's a time to live but isn't it strange that as soon as you're born you're dying.



Dm Cadd9

Just by looking through your eyes,

Gmadd9 Bb C

He could see the future penetrating right in through your mind



Dm Cadd9

See the truth and see your lies

Gmadd9 Bb! C

But for all his power couldn't forsee his own demise



(repeat riff 3)

(repeat riff 4)

There's a

D D5+ C/D D D D5+ C D

time to live and a time to die when it's time to meet the ma-ker. There's a

D D5+ C/D D D D5+ C D

time to live but isn't it strange that as soon as you're born you're dying.



(para C menor)

There's a

C C5+ Bb/C C C C5+ Bb C

time to live and a time to die when it's time to meet the ma-ker. There's a

C C5+ Bb/C C C

time to live but isn't it strange that as soon as you're born you're dying.



D C Dm Cadd9 Gmadd9 Bb Dm/A Gm/Bb C/D Cm/G Fm/Ab Bb/C D5+

E-------1----3-----5-----------1-----3----3----3----1----------------------

B-3-----3----3-----3-----------3-----3----5----4----1---3------3-----------

G-2--5--2----5-----3------3----2-----3----5----5----1---3------3-----------

D-0--5--0----5-----5------3----0-----0----0----5--------3------0-----------

A----3-------3------------1----0-----1------------------3------------------

E--------------------------------------------------------------------------



C/D (D by Bass) D E C5+

E------------------2-------------------------------------------------------

B------------------3-------------------------------------------------------

G---5--------------2--9----5-----------------------------------------------

D---5-----------------9----6-----------------------------------------------

A---3-----------------7----3-----------------------------------------------

E---------------------0----------------------------------------------------



Letra subida por: Anónimo

¿Has encontrado algún error en esta página? Envíanos tu corrección del acorde