música
Buscador

Acorde de Te Recuerdo - El Canto Del Loco

Letra de Te Recuerdo



Capo 1er traste



Intro:



C F C G

E||-----------------|-----------------|-----------------|-----------------|

B||-----------------|------------1----|-----------------|------------1----|

G||------------0----|-------0---------|------------0----|-------0---------|

D||-------2---------|--3--------------|-------2---------|-----------------|

A||--3--------------|-----------------|--3--------------|-----------------|

E||-----------------|-----------------|-----------------|--3--------------|





C F C G

-----------------|-----------------|-----------------|-----------------||

-----------------|------------1----|-----------------|------------1----||

------------0----|-------0---------|------------0----|-------0---------||

-------2---------|--3--------------|-------2---------|-----------------||

--3--------------|-----------------|--3--------------|-----------------||

-----------------|-----------------|-----------------|--3--------------||





(Mismo punteo)

Hoy no paro de pensarlo

y no sé ahora muy bien que hago aquí

Te has marchado y has dejado

otro hueco dentro de mí.



Am F

Te recuerdo porque fuiste y has sido

G

la chispa que me ha hecho vivir





(Intro)



(Mismo punteo)

A tu lado me sentía protegido

y dentro de ti

Ahora ya no existe risa

ya no hay nada que me haga reír



Am F

y me acuerdo del cariño

G

https://www.coveralia.com/acordes/te-recuerdo-el-canto-del-loco.php

y todos los besos que a veces no di.



(Intro)





Estribillo:



Dm G

Desde entonces no veo

C

otra cosa en mi ser

C(bajo G Am

y ahora ya te has marchado

Dm

no te volveré a ver

G

ya no estaremos solos



ya no veo tus ojos.





(Intro y igual que las estrofas anteriores)



Ando  solo y voy pensando

en las cosas que había por hacer

en los gestos que eran nuestros

que ahora  sólo no puedo tener

y me acuerdo del cariño y todos

los besos que a veces no di.









Aclaraciones:



En los sitios que no se toca la intro, hace

un arpegio cn los acordes puestos arriba.



:C(bajo G

E||--3----||

B||--1----||

G||--0----||

D||--x----||

A||--2----||

E||--x----||

Letra subida por: Anónimo

Discos en los que aparece este acorde: Estados De Animo ,

El acorde de Te Recuerdo de El Canto Del Loco es una versión de la canción original realizada por colaboradores/usuarios de Coveralia.

¿Has encontrado algún error en esta página? Envíanos tu corrección del acorde