Quantcast
música
Buscador

Acorde de Te Quiero Así - Aleks Syntek

Letra de Te Quiero Así

INTRO:    F     C    Gsus4 - G

                (Am)
   C             G                        F              G
e-----------------------------------------------------------------
B-----------------------------------------------------------------
G--12------------12----------12-----------12----------------------
D-----12-10---------12-10-------12-10--------12-10---------3-2----
A-----------10------------10----------10-----------10----3--------
E----------------------------------------------------------------- [2x]

C      G              F      G7
  confusion hay en mi mente
  pensamientos de la gente

F  G7 C           Cmaj7            Dm7
mi-ra-me, estoy sufriendo cada ves mas
        F          G
estoy sufriendo de amor por ti
    C           Cmaj7
mirame, no me importa lo que digan,
        Dm7
no me importa que me maldigan
      F                            G  G7
y que digan que me estoy volviendo loco
    Am  G C         F            G   G7
mirame  a-mor ya no puedo seguir asi

solo:  C    G    F    G7

 --------------------|------------------------------|
 --------------------|------------------------------|
 -------12~--16-12~~-|------------------------------|
 --------------------|--14h15p14--15-12--10-12-12~~-|
 -14/15--------------|------------------------------|
 --------------------|------------------------------|

 -------------15~~/////20-19-15~~-|--------------5-8~~~~--|
 ----------17---------------------|------------8----------|
 -------17------------------------|------5-7/9------------|
 -17/19---------------------------|--5-7------------------|
 ---------------------------------|-----------------------|
 ---------------------------------|-----------------------|

[entra Sasha]  (mismos acordes)

[C  G  F  (G7)]
[C  G  F]
confusion hay en mi mente
pensamientos de la gente

F-G-C          Cmaj7            Dm7 
mirame estoy sufriendo cada ves mas
     F                  G
y no puedo permitir que te alejen de mi
  G-Am  G-C        F            G   Gsus4-G
mirame  amor ya no puedo seguir asi


CORO:
              (Em)
           C  Cmaj7  Bb        F
Te quiero asi        solo para mi
              (Em)
          C   Cmaj7       Bb           F
solo tu y yo amor, no hay nada mas que discutir
                                               | [primera ves]   [segunda ves]
        Dm7          Em7       F           G   | G7sus4- G          G
no me importa ya perderlo todo si te tengo aqui..

       C  C/B-Am   Dm   F [2x]
..amor                         (si te tengo aqui amor) 
       F      G          F       G
(si te tengo aqui, si te tengo aqui amor)

FINAL:
                (Am)
   C             G                        F              G
e-----------------------------------------------------------------
B-----------------------------------------------------------------
G--12------------12----------12-----------12----------------------
D-----12-10---------12-10-------12-10--------12-10---------3-2----
A-----------10------------10----------10-----------10----3--------
E----------------------------------------------------------------- [2x]
 
  Cadd9
 --------------------------------------16---21---------
 --[5]-----------------------------18------------------
 --[5]----------------------17--19---------------------
 --[5]---------------14--17----------------------------
 -------------15--17-----------------------------------
 --------(15)------------------------------------------


Letra subida por: Anónimo

Discos en los que aparece este acorde: 40 Exitos

El acorde de Te Quiero Así de Aleks Syntek es una versión de la canción original realizada por colaboradores/usuarios de Coveralia.

¿Has encontrado algún error en esta página? Envíanos tu corrección del acorde