música
Buscador

Acorde de Tacones Baratos - Huecco

Letra de Tacones Baratos





RIFF1:



e|-------------------------------|

B|-1-1---1------------------1-1--|

G|---------1-1---1-0-0----0------|

D|-------------------------------|

A|-------------------------------|

E|-------------------------------|



BAJEO:



G|------------------------------------|

D|------------------------------------|

A|-----3-3---3-----------------3-3----|

E|-------------4-4---4--3-3--3--------|





BAJEO:



Hoy es el dia de los muertos en vida

donde este pobre corazon resucita

cinco meses devorao por las termitas

como esa podrida y vieja silla



hoy vi cruzar a esa chica sencilla

guapa de cara, rica de alma,

de esas que no se olvidan

belleza callada y mirada recogida

ojos que ponen la zancadilla, ha...



RIFF1:



quiero olvidar....., quiero probar...

quiero olvidar....., quiero probar...





G5

Quiero probar el rojo de tus labios

C5

quiero gastar mi vida entre tus brazos

G5 G#5

esos tacones baratos

G5 C5

nena ya estas cerca otra vez



G5

y tu me dices ven,



con lindas sonrisas

C5

y yo te digo ten,



mi mano, te acaricia

G5

y me dices bien,



que rica la vida



y yo te digo,

C5

arriba mariba, mariba





F5

me resbalo en tu piel,

C5

y exprimimos los ratos

G#5 G5

brillan tus piernas morenas,



con tacones baratos





BAJEO:



diosa, que has triturado esta rutina

de coger a los calendarios

y horas asesinas

de viejos, gordos, chinos ,

y cojas que no caminan

de aquella imbecil a la que di mi vida



acercate, y abre esta botella vacia

ya no queda demasiado corazon,

ya no quedan palabras bonitas

tu no la ves pero mi alma respira

y me gustas, chiquilla



RIFF1:



quiero olvidar....., quiero probar...

quiero olvidar....., quiero probar...



G5

Quiero probar el rojo de tus labios

C5

quiero gastar mi vida entre tus brazos

G5 G#5

esos tacones baratos

G5 C5

nena ya estas cerca otra vez

https://www.coveralia.com/acordes/tacones-baratos-huecco.php



G5

y tu me dices ven,



con lindas sonrisas

C5

y yo te digo ten,



mi mano, te acaricia

G5

y me dices bien,



que rica la vida



y yo te digo,

C5

arriba mariba, mariba





F5

me resbalo en tu piel,

C5

y exprimimos los ratos

G#5 G5

brillan tus piernas morenas,



con tacones baratos





e|--------------------------|

B|--------------------------|

G|-5-5-3-5------------------|

D|-5-5-3-5-6-5-3--3-3/5/3/5-|

A|-3-3-1-3-6-5-3--3-3/5/3/5-|

E|---------4-3-1--1-1/3/1/3-|



Pisa que suenen los tacones mami!



e|----------------------|

B|----------------------|

G|-5-5-3-5--------------|

D|-5-5-3-5-6-5-3--3-3-2-|

A|-3-3-1-3-6-5-3--3-3-2-|

E|---------4-3-1--1-1-0-| x2





Pisalo pisalo !!!





DE FONDO:



G5

esos labios

C5

quiero gastar mi vida entre tus brazos

G5 G5#

esos tacones baratos

G5 C5

nena ya estas cerca otra vez









G5

y tu me dices ven,



con lindas sonrisas

C5

y yo te digo ten,



mi mano, te acaricia

G5

y me dices bien,



que rica la vida



y yo te digo,

C5

arriba mariba, mariba







F5

me resbalo en tu piel,

C5

y exprimimos los ratos

G#5 G5

brillan tus piernas morenas,



con tacones baratos!!





e|----------------------|

B|----------------------|

G|-5-5/8-7-6-5----------|

D|-5-5/8-7-6-5----------|

A|-3-3/6-5-4-3----------|

E|----------------------|







Letra subida por: Anónimo

Discos en los que aparece este acorde: Huecco , ,

El acorde de Tacones Baratos de Huecco es una versión de la canción original realizada por colaboradores/usuarios de Coveralia.

¿Has encontrado algún error en esta página? Envíanos tu corrección del acorde