música
Buscador

Acorde de Summertime Of Our Lives - Cody Simpson

Letra de Summertime Of Our Lives



capo 5 - Standard tuning





verse 1





Cadd9 G Em7 Cadd9 G Em7

E|---------------------------------------------------------------------------|

B|--------3--------3-----------3---------------3--------3-----------3--------|

G|--------0--------0--------0------------------0--------0--------0-----------|

D|-----2--------0--------2------------------2--------0--------2--------------|

A|--3--------2--------0------------------3--------2--------0-----------------|

E|---------------------------------------------------------------------------|

Everyday at twilight, as the sun turns red in the sky,





Cadd9 G Em7 Cadd9 G Em7

E|---------------------------------------------------------------------------|

B|--------3--------3-----------3---------------3--------3-----------3--------|

G|--------0--------0--------0------------------0--------0--------0-----------|

D|-----2--------0--------2------------------2--------0--------2--------------|

A|--3--------2--------0------------------3--------2--------0-----------------|

E|---------------------------------------------------------------------------|

I think of you on the shoreline, brushing your hair from your eyes,



Cadd9 G

E|---------------------------------------|

B|-----------------3-----------------3---|

G|--------------0-----------------0------|

D|-----------2-----------------0---------|

A|--------3------------------2-----------|

E|---------------------------------------|



We were drawing our names in the wet sand,





Em7 Em7

E|-------------------------------------------|

B|-----------3------------------3---------3--|

G|--------0------------------0------------0--|

D|-----2------------------2---------------2--|

A|--0----------------------------------------|

E|-------------------------------------------|



And running away as the tide rode in







~~~Or, if you wanna play it with chords only~~~

If you're playing the song using just chords, then use Em7 = 022033





Cadd9 G Em7 D

Everyday at twilight, as the sun turns red in the sky,



Cadd9 G Em7 D

I think of you on that shoreline, brushing your hair from your eyes,



Cadd9 G Em7 D

We were drawing our names in the wet sand, and running away as the tide



D

rode in,







Cadd9 G

Wherever you are, no matter how far,



Em7 D

I promise that I won't give up on you,



Cadd9 G

They say out of sight, means out of mind,



Em7 D

But they couldn't be further from the truth,



Cadd9 G, Em7, D

'Cause I'm in love with you, (whistling part)



Cadd9

I'm still in love with you,







verse 2





Cadd9 G Em7 Cadd9 G Em7

https://www.coveralia.com/acordes/summertime-of-our-lives-cody-simpson.php

E|---------------------------------------------------------------------------|

B|--------3--------3-----------3---------------3--------3-----------3--------|

G|--------0--------0--------0------------------0--------0--------0-----------|

D|-----2--------0--------2------------------2--------0--------2--------------|

A|--3--------2--------0------------------3--------2--------0-----------------|

E|---------------------------------------------------------------------------|

Even if there is an ocean, keeping your heart from mine,





Cadd9 G Em7 Cadd9 G Em7

E|---------------------------------------------------------------------------|

B|--------3--------3-----------3---------------3--------3-----------3--------|

G|--------0--------0--------0------------------0--------0--------0-----------|

D|-----2--------0--------2------------------2--------0--------2--------------|

A|--3--------2--------0------------------3--------2--------0-----------------|

E|---------------------------------------------------------------------------|

that doesn't mean I'm not thinking, about you all the time,



Cadd9 G

E|---------------------------------------|

B|-----------------3-----------------3---|

G|--------------0-----------------0------|

D|-----------2-----------------0---------|

A|--------3------------------2-----------|

E|---------------------------------------|



I'm counting the days til I see you





Em7 Em7

E|-------------------------------------------|

B|-----------3------------------3---------3--|

G|--------0------------------0------------0--|

D|-----2------------------2---------------2--|

A|--0----------------------------------------|

E|-------------------------------------------|



And somewhere I know that you Are too





~~~CHORDS~~~



Cadd9 G Em7 D

Even if there is an ocean, keeping your heart from mine,



Cadd9 G Em7 D

That doesn't mean I'm not thinking, about you all the time,



Cadd9 G Em7 D

I'm counting the days til I see you, and somewhere I know that you



D

are too,





Chorus here again





~~~BRIDGE~~~



Cadd9 G Em7 D

We had the summertime, of our lives, nothing here has ever felt so right, the



Cadd9 G Em7 D

summertime of our lives, and even though we had to say goodbye I know,



Cadd9 G Em D

when the water gets warm you'll come back to me,





Chorus: ("*" means one strum)



Cadd9* G*

Wherever you are, no matter how far,



Em7* D*

I promise that I won't give up on you,



Cadd9 G

They say out of sight, means out of mind,



Em7 D

But they couldn't be further from the truth,



Cadd9 G, Em7, D

'Cause I'm in love with you, (whistling part)



Cadd9

I'm still in love with you,

Letra subida por: Anónimo

El acorde de Summertime Of Our Lives de Cody Simpson es una versión de la canción original realizada por colaboradores/usuarios de Coveralia.

¿Has encontrado algún error en esta página? Envíanos tu corrección del acorde