música
Buscador

Acorde de Stacy's Mom - Fountains Of Wayne

Letra de Stacy's Mom

p.m.) Con Sordina (palm muted) 





INICIO

Guitarra 1

e|-------------------------------0--|

B|-------------------------------0--|

G|----------------------------------| x6

D|----------------------------------|

A|-------------------6-7------------|

E|-0-0-0-5-5-5-5-5-7-----5-5-5-5----|

p.m. - - - - - - - - - - - - |

(la últoma vez se omiten las últimas 3 notas)







ESTROFA I

Guitarra 1

e|----------------------------------|

B|----------------------------------|

G|----------------------------------|

D|----------------------------------| _

A|-------------------6-7------------| \

E|-0-0-0-5-5-5-5-5-7-----5-5-5-5-5--| \

p.m. - - - - - - - - - - - - - - /

\_ x4

/

e|-------------------------------0--| \

B|-------------------------------0--| /

G|----------------------------------| _/

D|----------------------------------|

A|-------------------6-7------------|

E|-0-0-0-5-5-5-5-5-7-----5-5-5-5----|

p.m. - - - - - - - - - - - - |







PRECORO

GUITARRA 1

e|----------------------------------|

B|----------------------------------|

G|----------------------------------|

D|----------------------------------|

A|-6-6-6-6-6-6-6-6-7-7-7-7-7-7-7-7--|

E|-4-4-4-4-4-4-4-4-5-5-5-5-5-5-5-5--|





e|----------------------------|

B|----------------------------|

G|----------------------------|

D|----------------------------|

A|-6-6-6-6-6-6-6-6-7-7-7-7-7--|

E|-4-4-4-4-4-4-4-4-5-5-5-5-5--|







CORO

Guitarra 1

e|----------------------------------|

B|----------------------------------|

G|-2-2-2-----------4-4-4-6-6-6-6-6--| x2

D|-2-2-2-2-2-2-2-2-4-4-4-6-6-6-6-6--|

A|-0-0-0-2-2-2-2-2-2-2-2-4-4-4-4-4--|

E|-------0-0-0-0-0------------------|





e|----------------------------------|

B|----------------------------------|

G|-2-2-2-----------5-5-5-6-6-6-6-6--|

D|-2-2-2-2-2-2-2-2-5-5-5-6-6-6-6-6--|

A|-0-0-0-2-2-2-2-2-3-3-3-4-4-4-4-4--|

E|-------0-0-0-0-0------------------|





e|----------------------------------|

B|----------------------------------|

G|-2-2-2-2-2-2-2-2-4-4-4-4-4-4-4-4--|

D|-2-2-2-2-2-2-2-2-4-4-4-4-4-4-4-4--|

A|-0-0-0-0-0-0-0-0-2-2-2-2-2-2-2-2--|

E|----------------------------------|







PREESTROFA

Guitarra 1

e|-------------------------------0--|

B|-------------------------------0--|

G|----------------------------------| x2

D|----------------------------------|

A|-------------------6-7------------|

E|-0-0-0-5-5-5-5-5-7-----5-5-5-5----|

p.m. - - - - - - - - - - - - |

(la última vez se omiten las últimas 3 notas)







ESTROFA II

Guitarra 1

e|----------------------------------|

B|----------------------------------|

G|----------------------------------|

D|----------------------------------| _

A|-------------------6-7------------| \

E|-0-0-0-5-5-5-5-5-7-----5-5-5-5-5--| \

p.m. - - - - - - - - - - - - - - /

\_ x4

/

e|-------------------------------0--| \

B|-------------------------------0--| /

G|----------------------------------| _/

D|----------------------------------|

A|-------------------6-7------------|

E|-0-0-0-5-5-5-5-5-7-----5-5-5-5----|

p.m. - - - - - - - - - - - - |





ESTROFA II

Guitarra 2

e|-----0-------0-------0-------0----|

B|---0---0---2---2---4---0---2---2--|

G|-4-------2-------4-------2--------| x8

D|----------------------------------|

A|----------------------------------|

E|----------------------------------|







PRECORO

GUITARRA 1

e|----------------------------------|

B|----------------------------------|

G|----------------------------------|

D|----------------------------------|

A|-6-6-6-6-6-6-6-6-7-7-7-7-7-7-7-7--|

E|-4-4-4-4-4-4-4-4-5-5-5-5-5-5-5-5--|





e|----------------------------|

B|----------------------------|

G|----------------------------|

D|----------------------------|

A|-6-6-6-6-6-6-6-6-7-7-7-7-7--|

E|-4-4-4-4-4-4-4-4-5-5-5-5-5--|







CORO

Guitarra 1

e|----------------------------------|

B|----------------------------------|

G|-2-2-2-----------4-4-4-6-6-6-6-6--| x2

D|-2-2-2-2-2-2-2-2-4-4-4-6-6-6-6-6--|

A|-0-0-0-2-2-2-2-2-2-2-2-4-4-4-4-4--|

E|-------0-0-0-0-0------------------|





e|----------------------------------|

B|----------------------------------|

G|-2-2-2-----------5-5-5-6-6-6-6-6--|

D|-2-2-2-2-2-2-2-2-5-5-5-6-6-6-6-6--|

A|-0-0-0-2-2-2-2-2-3-3-3-4-4-4-4-4--|

E|-------0-0-0-0-0------------------|





e|----------------------------------|

B|----------------------------------|

G|-2-2-2-2-2-2-2-2-4-4-4-4-4-4-4-4--|

D|-2-2-2-2-2-2-2-2-4-4-4-4-4-4-4-4--|

https://www.coveralia.com/acordes/stacy-s-mom-fountains-of-wayne.php

A|-0-0-0-0-0-0-0-0-2-2-2-2-2-2-2-2--|

E|----------------------------------|







SOLO

Guitarra 1

e|-------------------------------|

B|-------------------------------|

G|-5-7-9-7-----------------------|

D|----------9-5-7--7-7-5-9--7-5--|

A|-------------------------------|

E|-------------------------------|





e|-------------------------------|

B|-------------------------------|

G|-5-7-9-7------4--5-4-5-4-5-4\--|

D|----------9-5------------------|

A|-------------------------------|

E|-------------------------------|





e|-------------------------------|

B|-------------------------------|

G|-5-7-9-7-----------------------|

D|----------9-5-7--7-7-5-9--7-5--|

A|-------------------------------|

E|-------------------------------|





e|----------------------------------|

B|-4-5-4-5-4-5-4-5-7-8-7-8-7-8-7-8--|

G|-4-5-4-5-4-5-4-5-8-9-8-9-8-9-8-9--|

D|----------------------------------|

A|----------------------------------|

E|----------------------------------|





SOLO

Guitarra 2

e|----------------------------------|

B|----------------------------------|

G|-5-5-5-----------7-7-7-9-9-9-9-9--|

D|-5-5-5-5-5-5-5-5-7-7-7-9-9-9-9-9--|

A|-3-3-3-5-5-5-5-5-5-5-5-7-7-7-7-7--|

E|-------3-3-3-3-3------------------|





e|----------------------------------|

B|----------------------------------|

G|-5-5-5-----------4-4-4-4-4-4-4-4--|

D|-5-5-5-5-5-5-5-5-4-4-4-4-4-4-4-4--|

A|-3-3-3-5-5-5-5-5-2-2-2-2-2-2-2-2--|

E|-------3-3-3-3-3------------------|





e|----------------------------------|

B|----------------------------------|

G|-5-5-5-----------7-7-7-9-9-9-9-9--|

D|-5-5-5-5-5-5-5-5-7-7-7-9-9-9-9-9--|

A|-3-3-3-5-5-5-5-5-5-5-5-7-7-7-7-7--|

E|-------3-3-3-3-3------------------|





e|----------------------------------|

B|----------------------------------|

G|-5-5-5-5-5-5-5-5-4-4-4-4-4-4-4-4--|

D|-5-5-5-5-5-5-5-5-4-4-4-4-4-4-4-4--|

A|-3-3-3-3-3-3-3-3-2-2-2-2-2-2-2-2--|

E|----------------------------------|







CORO FINAL

Guitarra 1 y 2

e|----------------------------------|

B|----------------------------------|

G|-5-5-5-----------7-7-7-9-9-9-9-9--| x2

D|-5-5-5-5-5-5-5-5-7-7-7-9-9-9-9-9--| _

A|-3-3-3-5-5-5-5-5-5-5-5-7-7-7-7-7--| \

E|-------3-3-3-3-3------------------| \

\

\

e|----------------------------------| /

B|----------------------------------| /

G|-5-5-5-----------8-8-8-9-9-9-9-9--| \

D|-5-5-5-5-5-5-5-5-7-7-7-9-9-9-9-9--| \_ x2

A|-3-3-3-5-5-5-5-5-6-6-6-7-7-7-7-7--| /

E|-------3-3-3-3-3------------------| /

\

\

e|----------------------------------| /

B|----------------------------------| /

G|-5-5-5-5-5-5-5-5-7-7-7-7-7-7-7-x--| /

D|-5-5-5-5-5-5-5-5-7-7-7-7-7-7-7-x--| _/

A|-3-3-3-3-3-3-3-3-5-5-5-5-5-5-5-x--|

E|----------------------------------|

(el último cacheteado sólo se da la segunda vez)







LETRA



Stacy's mom, has got it goin? on

Stacy's mom, has got it goin? on

Stacy's mom, has got it goin? on

Stacy's mom, has got it goin? on



Stacy can I come over

After school (after school)

We can hang around

by the pool (hang by the pool)

Did your mom get back

from her business trip (business trip)

Is she there?

Or is she tryin? to give me the slip (give me the slip)



You know I'm not the little boy

that I used to be

I'm all grown up

Now baby can't you see!?



Stacy's mom, has got it goin? on

She's all I want, and I've waited for so long

Stacy can't ya? see? you're just not the girl for me

I know it might be wrong but,

I'm in love with Stacy's mom



Stacy's mom, has got it goin? on

Stacy's mom, has got it goin? on



Stacy do you remember

when I mowed your lawn (mowed your lawn)

Your mom came out

With just a towel on (towel on)

I could tell she liked me

From the way she stared (way she stared)

And the way she said

'y?a missed a spot over there' (spot over there)



And I know that you think its just a fantasy

But since your dad walked out

your mom could use a guy like me



Stacy's mom, has got it goin? on

She's all I want and I've waited for so long

Stacy can't ya? see?

You're just not the girl for me

I know it may be wrong but,

I'm in love with Stacy's mom



Stacy's mom has got it goin? on (she?s got it goin? on)

She's all I want and I've waited for so long

Stacy can't ya? see!?, You're just not the girl for me

I know it might be wrong, I'm in love with-



Stacy's mom, ah-oh-ah-oh

I'm in love with-

Stacy's mom, ah-oh-ah-oh

Wait a minute

Stacy can't ya? see?

You're just not the girl for me

I know it might be wrong but

I'm in love with Stacy's mom





Letra subida por: Anónimo

Discos en los que aparece este acorde: Welcome Interstate Managers ,

El acorde de Stacy's Mom de Fountains Of Wayne es una versión de la canción original realizada por colaboradores/usuarios de Coveralia.

¿Has encontrado algún error en esta página? Envíanos tu corrección del acorde