música
Buscador

Acorde de Spanish Sahara - Foals

Letra de Spanish Sahara



INTRO

F Am C Am Em7



F Am

So I walked into the haze

C Am Em7

And a million dirty waves

F Am

Now I see you lying there

C Am Em7

Like a lilo losing air air



Black rocks and shoreline sand

Still that summer I cannot bear

And I wipe the sand from my arms



The Spanish Sahara

The place that you'd wanna

Leave the horror here



Forget the horror here

Forget the horror here

Leave it all down here

It's future rust and then it's future dust



Now the waves they drag you down

Carry you to broken ground

Though I find you in the sand

Wipe you clean with dirty hands

So god damn this boiling space



It's the Spanish Sahara

The place that you'd wanna

Leave the horror here



Forget the horror here

forget the horror here

Leave it all down here

It's future rust and then it's future dust



I'm the fury in your head

I'm the fury in your bed

I'm the ghost in the back of your head



SOLO



e|---------------------------------------| x2

B|-13--13-12--12--12-10--10--10----------|

G|------------------------------10-12-9--|

D|---------------------------------------|

https://www.coveralia.com/acordes/spanish-sahara-foals.php

A|---------------------------------------|

E|---------------------------------------|



e|-----------------------------------------------------------------------------|

B|-13--13-12--12--12-10--10-10-12--12-12--13--13-12--12--12---13--13-12--12-12-|

G|-----------------------------------------------------------------------------|

D|-----------------------------------------------------------------------------|

A|-----------------------------------------------------------------------------|

E|-----------------------------------------------------------------------------|



e|-12--12-10--10-10-----------17-15-12---| x2

B|------------------13--13-13------------|

G|---------------------------------------|

D|---------------------------------------|

A|---------------------------------------|

E|---------------------------------------|



e|-12--12-10--10-10-----------------------------------------------------|

B|------------------13--13-13-15--15-15---------------------------------|

G|---------------------------------------14161416--16-14-16-16-14-16-16-|

D|----------------------------------------------------------------------|

A|----------------------------------------------------------------------|

E|----------------------------------------------------------------------|



PLAY CHORDS AGAIN OR:



e|----------|----------| Play the first 8 time, second 4 times, back

B|-------17-|-------15-| to the first, etc, you get the picture..

G|----14----|----14----|

D|-17-------|-17-------|

A|----------|----------|

E|----------|----------|



Forget the horror here,

forget the horror here,

leave it all down here,

it's future, it's future dust



A choir of furies in your head,

choir of furies in your bed,

I'm the ghost in the back of your head, cos I'm



The choir of furies in your head,

choir of furies in your bed,

I'm the ghost in the back of your head...



End on Am





Letra subida por: Anónimo

Discos en los que aparece este acorde: Total Life Forever

El acorde de Spanish Sahara de Foals es una versión de la canción original realizada por colaboradores/usuarios de Coveralia.

¿Has encontrado algún error en esta página? Envíanos tu corrección del acorde