música
Buscador

Acorde de Son Cuatro Dias - El Ultimo De La Fila

Letra de Son Cuatro Dias

Acordes Inusuales:   Gmaj= 3 2 0 0 3 3   Dadd9= 2 x 0 2 3 0



INTRO:

Gmaj D Em

------------------------------------------------

---------3-----------------3-----------------0--

-----0-----------------0-----------------0------

-5------------5----4-----------4----2-----------

------------------------------------------------

------------------------------------------------



G C Em Em7

-------------------------------------------------------

-------------0-----------------------1--------------3--

---------0-----------------------0------------------0--

2----0-----------0----------0h2-----------------2------

---------------------3---------------------------------

--------------------------------------------0----------







Gmaj D Em G C Em Em7

Duerme la ciudad y en un local oscuro junto al mar

Gmaj D Em G C Em Em7

está tocando un músico de jazz.

Gmaj D Em G C Em Em7

Miras hacia mí y en tus ojos cansados puedo ver

Gmaj D Em G C Em Em7

que hay un nombre escrito de mujer.





C Em7 Dadd9 Em

De su guitarra se van notas de fuego;

C Em7 Dadd9 Em

los acordes de cristal, hacia la eternidad.

C Em7 Dadd9 Em

https://www.coveralia.com/acordes/son-cuatro-dias-el-ultimo-de-la-fila.php

Viejas canciones de amor, viejos poemas.

C Em7 Dadd9 Em

Entre el humo y el alcohol, la noche suena a jazz.





Gmaj D Em G C Em Em7

Duerme la ciudad y una muchacha negra entra en el bar.

Gmaj D Em G C Em Em7

Parece borracha -a ver quién no lo está-.

Gmaj D Em G C Em Em7

Duerme la ciudad y una muchacha negra entra en el bar.

Gmaj D Em G C Em Em7

Grita que los blancos huelen mal.





(SOLO): C Em7 Dadd9 Em = x2





Dadd9 Em C Em

Años luz de soledad. Recuérdame cuando me vaya.

Dadd9 Em C Em

Besa el mar la arena gris y en la ciudad la noche canta.

Dadd9 Em C Em

OH WHAA...! OH OH WHAA...! OH OH OH WHAA...! OH WHA !

Dadd9 Em C Em

OH WHAA...! OH OH WHAA...! OH OH OH WHAA...! OH WHA !





Gmaj D Em G C Em Em7

Sentado en un rincón mirando a dos gatos retozar.

Gmaj D Em G C Em Em7

Triste estampa ser rey de la creación,



Gmaj D Em G C Em

Duerme la ciudad y está tocando un músico de jazz

Letra subida por: Anónimo

El acorde de Son Cuatro Dias de El Ultimo De La Fila es una versión de la canción original realizada por colaboradores/usuarios de Coveralia.

¿Has encontrado algún error en esta página? Envíanos tu corrección del acorde