música
Buscador

Acorde de Something Worth Saving - Gavin Degraw

Letra de Something Worth Saving

[Verse]

     Am                       F
  e|-0-----0-----0-----0----|-1-----1-----1-----1----|
  B|-1-----1-----1-----1----|-1-----1-----1-----1----|
  G|-2-----2-----2-----2----|-2-----2-----2-----2----|
  D|------------------------|------------------------|
  A|-0----------------------|------------------------|
  E|------------------------|-1----------------------|
Sometimes        When I lie awake at night I think

     C                        G
  e|-0-----0-----0-----0----|-3-----3-----3-----3----|
  B|-1-----1-----1-----1----|-3-----3-----3-----3----|
  G|-0-----0-----0-----0----|-0-----0-----0-----0----|
  D|------------------------|------------------------|
  A|-3----------------------|------------------------|
  E|------------------------|-3----------------------|
   about how far We made it Together           We we 

     Am                       F
  e|-0-----0-----0-----0----|-1-----1-----1-----1----|
  B|-1-----1-----1-----1----|-1-----1-----1-----1----|
  G|-2-----2-----2-----2----|-2-----2-----2-----2----|
  D|------------------------|------------------------|
  A|-0--------------------0-|------------------------|
  E|------------------------|-1--------------------1-|
    wild.     I knew we would always be    Maybe it's

     C                        G
  e|-0-----0-----0-----0----|-3-----3-----3-----3----|
  B|-1-----1-----1-----1----|-3-----3-----3-----3----|
  G|-0-----0-----0-----0----|-0-----0-----0-----0----|
  D|------------------------|------------------------|
  A|-3--------------------3-|------------------------|
  E|------------------------|-3--------------------3-|
    all part of finding  Our heaven


[Chorus]
Am               Dm7        C
    Even if it breaks your heart
            G7
Even if it tears your world apart
Am                  Dm7    C
    Still you keep holding on
    G
If something's worth saving
Am              Dm7       C
    All of our hopes and fears
              G7                    Am
They may get tangled but love's sincere
            Dm7    C
So we keep holding on
    G
To something worth saving
Am               F          C
    Even if it breaks your heart


[Verse]
    Am
My hopes (my hopes)
          F
They only align with yours
                 C
They're only as big as 
                G
We both aim to make them
     Am
For love 
             F
If I had a thousand lives
                 C
I'd find you a thousand times
              G
You know I'd come back again


[Chorus]
  Am            F          C
Oh even if it breaks your heart
            G7
Even if it tears your world apart
Am                Dm7    C
  Still you keep holding on
    G
If something's worth saving
Am            F         C
  All of our hopes and fears
              G7                    Am
They may get tangled but love's sincere
            Dm7    C
So we keep holding on
    G
To something worth saving
Am             F          C
  Even if it breaks your heart


[Bridge]
E7
   How good it could be
Am                     F
   I knew it would be somehow 
                           C
And now I know now that it is
E7
   Who could imagine
Am
   With all that's happened
     Dm7                      B7
The names, the fights, the insanely long nights
          Am         A#         A7
And I'm standing on top of the world
Yeah
      Dm
And when the dust settles
         F             G
You're standing right with me 'cause


[Chorus]
Am              F          C
   Even if it breaks your heart
            G
Even if it tears your world apart
Am                 F      C
   Still you keep holding on
    G
If something's worth saving
Am             F         C
   All of our hopes and fears
              G                     Am
They may get tangled but love's sincere
            F      C
So we keep holding on
    G
To something worth saving
Am              F          C
   Even if it breaks your heart


Letra subida por: Anónimo

Discos en los que aparece este acorde: Something Worth Saving , Something Worth Saving (Target Edition)

El acorde de Something Worth Saving de Gavin Degraw es una versión de la canción original realizada por colaboradores/usuarios de Coveralia.

¿Has encontrado algún error en esta página? Envíanos tu corrección del acorde