música
Buscador

Acorde de Someone Else - The Radio Dept



Intro: A



A F#m

It amazes me how much I want you

A F#m

We seem to fall out every time

A F#m

And again when I feel that we're closing in

A F#m A F#m

You say "Look I really can't pull this off, not this time"



A F#m A F#m A



D A F#m C#m D A F#m C#m D



E|-----5-4---------------5-4---------------------------------------------|

B|-7---------5--2----7--------5---3--------------------------------------|

G|-----------------------------------------------------------------------| x2

D|-----------------------------------------------------------------------|

A|-----------------------------------------------------------------------|

E|-----------------------------------------------------------------------|



A

What's with all these people?

F#m

https://www.coveralia.com/acordes/someone-else-the-radio-dept.php

Who are they?

A

What do they want?

F#m

I don't carry drugs in my pocket

A F#m

Though you said it would bring us closer

A F#m

I don't think you meant to each other

A F#m A F#m

But to something else

F#m A

Someone else



Outro: A F#m A D A F#m C#m D A F#m C#m D (keep on repeating and

end with A)



E|--5-7-9-------5-7-9--------------5-7-9------------------------------------|

B|---------7~----------5s3~---x3-----------9---5----------------------------|

G|-------------------------------------------------2------------------------|

D|--------------------------------------------------------------------------|

A|--------------------------------------------------------------------------|

E|--------------------------------------------------------------------------|



Letra subida por: Anónimo

Discos en los que aparece este acorde: Pulling Our Weight (Ep)

El acorde de Someone Else de The Radio Dept es una versión de la canción original realizada por colaboradores/usuarios de Coveralia.

¿Has encontrado algún error en esta página? Envíanos tu corrección del acorde