música
Buscador

Acorde de SOLVE COAGULA - Marilyn Manson

Letra de SOLVE COAGULA

Riff A

e|-------------------|---------------------|

B|-------------------|---------------------|

G|-------------------|---------------------|

D|-------------------|---------------------|

A|-7-7-7-7---9-7-5---|---------------------|

E|-----------------7-|--5-5-5-5--7-5-3-0---|





[intro]



Em G D Am 2x

Riff A 2x





[Verse 1]

Em

You are the one

G

Tore off both your arms

D Am

Gouged out your eyes

C Em

And ripped out your own tongue

D C

So listen





[Pre-Chorus]

Em

I'm not special, I'm just broken

C Em

And I don't wanna be fixed





[Chorus]

C

No one else I

D

No one else I

Em

Wanna be like

C Am

So I stayed the same

D Em

Like nobody else



G D Am



[Verse 2]

C D Em

So you think you can sing or clap

C

Well, all you need is an ear

Em

So listen





[Pre-Chorus]

D G

I'm not special, I'm just broken

Am C Em

And I don't wanna be fixed





[Chorus]

C

No one else I

D

No one else I

Em

Wanna be like

C Am

So I stayed the same

D Em

Like nobody else

C

No one else I

D

No one else I

Em

Wanna be like

C Am

So I stayed the same

D Em

Like nobody else



[Instrumental Break]

Em G D Am 4x





e|--------------------|----------------------|

B|--------------------|----------------------|

G|--------------------|----------------------|

G|--------------------|----------------------|

A|-7-7-7-7---9-7-5----|----------------------|

E|-----------------7--|---5-5-5-5--7-5-3-0---|

| |

e|--------------------|----------------------|

B|--------------------|----------------------|

G|--------------------|-------------------8b-|

D|--------------------|----------------------|

A|--------------------|----------------------|

E|--------------------|----------------------|



e|--------------------|----------------------|

B|--------------------|----------------------|

G|--------------------|----------------------|

D|--------------------|----------------------|

A|--------------------|----------------------|

E|--------------------|----------------------|

| |

e|--------------------|----------------------|

B|-----8br-s10--------|----10b---------------|

G|--------------------|----------------------|

https://www.coveralia.com/acordes/solve-coagula-marilyn-manson.php

D|--------------------|----------------------|

A|--------------------|----------------------|

E|--------------------|----------------------|



e|--------------------|----------------------|

B|--------------------|----------------------|

G|-9-9-9-9---11-9-7---|----------------------|

D|------------------9-|--7-7-7-7----9-7-5----|

A|--------------------|-------------------7--|

E|--------------------|----------------------|

| |

e|--------------------|----------------------|

B|-14br----------15---|--8br----------8---5--|

G|--------------------|----------------------|

D|--------------------|----------------------|

A|--------------------|----------------------|

E|--------------------|----------------------|



e|--------------------|----------------------|

B|--------------------|----------------------|

G|-9-9-9-9---11-9-7---|----------------------|

D|------------------9-|--7-7-7-7----9-7-5----|

A|--------------------|-------------------7--|

E|--------------------|----------------------|

| |

e|--------------------|----------------------|

B|-5b-5b-5b-7b-7b-7b--|8b-8b-10b-10b-12b-12b-|

G|--------------------|----------------------|

D|--------------------|----------------------|

A|--------------------|----------------------|

E|--------------------|----------------------|





[Chorus]

C

No one else I

D

No one else I

Em

Wanna be like

C Am

So I stayed the same

D Em

Like nobody else

C

No one else I

D

No one else I

Em

Wanna be like

C Am

So I stayed the same

D Em

Like nobody else



wha-wha

Em

e|-----------------------|

B|-----------------------|

G|-----------------------|

D|------7--5--4----------|

A|---------------7-------|

E|-----------------------|



[Outro]

Em G

I'm not special, I'm just

e|-----------------------|

B|-----------------------|

G|----9-9-9-9---11-9-7---|

D|---------------------9-|

A|-----------------------|

E|-----------------------|



D Am

Broken and I don't wanna be fixed

Em G

I'm not special, I'm just

e|-----------------------|

B|-----------------------|

G|----9-9-9-9---11-9-7---|

D|---------------------9-|

A|-----------------------|

E|-----------------------|



D Am

Broken and I don't wanna be fixed

Em G

I'm not special, I'm just

e|-----------------------|

B|-----------------------|

G|----9-9-9-9---11-9-7---|

D|---------------------9-|

A|-----------------------|

E|-----------------------|



D Am

Broken and I don't wanna be fixed

Em G

I'm not special, I'm just

e|-----------------------|

B|-----------------------|

G|----9-9-9-9---11-9-7---|

D|---------------------9-|

A|-----------------------|

E|-----------------------|



D Am

Broken and I don't wanna be fixed

Em G

I'm not special, I'm just

D Am

Broken and I don't wanna be fixed

Discos en los que aparece este acorde: We Are Chaos

El acorde de SOLVE COAGULA de Marilyn Manson es una versión de la canción original realizada por colaboradores/usuarios de Coveralia.

¿Has encontrado algún error en esta página? Envíanos tu corrección del acorde