música
Buscador

Acorde de Solo Y Duro - Jovenes Pordioseros

Letra de Solo Y Duro

Intro*: G C D x2



G C D

Yo sé que te perdí

y no puedo evitar llorar,

las palabras se las lleva el viento

y por acá no para de llover



C G

Salgo a caminar,

C G

me pongo a pensar,

C G D

salgo a caminar sólo y duro... solo



Yo sé que lo intenté

las horas pasan para mi

de lo nuestro casi ya no hablo (no quiero hablar)

y por acá no para de llover



Salgo a caminar,

me pongo a pensar,

salgo a caminar sólo y duro... solo



“este punteo es como si fuese el saxo”



G C D G C D

e|--------------------------------|------------------------|-

B|----------7/8-7-----------------|------------------------|-

G|--7/9-9-7-------9-7-----7-7/9-7-|---------------------7--|-

D|--------------------9-7---------|-------7-9-10-9-7-------|-

A|--------------------------------|-10-10------------10----|-

E|--------------------------------|------------------------|-



G C D

e|-------------7/10-7---------7/10-7----------10/12-12-10--|-

B|------7-8-10--------10-8--8--------10-8---8--------------|-

G|--7-9----------------------------------------------------|-

D|---------------------------------------------------------|-

A|---------------------------------------------------------|-

E|---------------------------------------------------------|-



G C D

e|-------------7/10-7---------7/10-7----------10/12-12-10--|-

https://www.coveralia.com/acordes/solo-y-duro-jovenes-pordioseros.php

B|------7-8-10--------10-8--8--------10-8---8--------------|-

G|--7-9----------------------------------------------------|-

D|---------------------------------------------------------|-

A|---------------------------------------------------------|-

E|---------------------------------------------------------|-

C salgo a caminar...

e|---7/8-7--------|-

B|---------10---8-|-

G|------------9---|-

D|----------------|-

A|----------------|-

E|----------------|-



Salgo a caminar,

me pongo a pensar,

salgo a caminar sólo y duro



D Dsus4 D C D Dsus4 D C (varias veces)



C D Dsus4 D



C D C D

D|----------4-5-4-----7-5-4-5-4-------4---|-

A|--3-5-3-5-------5-3-----------5-3-5---5-|-



D Dsus4 D C D Dsus4 D C (varias veces)



F G D Dsus4 D

F G D

C D



*por ahí está bueno que usen estos acordes

arpegiados para el intro y las estrofas

acompañados de los acordes normales...



G C D

e|--7-|-8-|-10-|-

B|--8-|-8-|-8--|-

G|--7-|-7-|-7--|-

D|--x-|-x-|-x--|-

A|--x-|-x-|-x--|-

E|--x-|-x-|-x--|-



Letra subida por: Anónimo

Discos en los que aparece este acorde: Vicio

El acorde de Solo Y Duro de Jovenes Pordioseros es una versión de la canción original realizada por colaboradores/usuarios de Coveralia.

¿Has encontrado algún error en esta página? Envíanos tu corrección del acorde