música
Buscador

Acorde de Solo - Sin Bandera

Letra de Solo



.. A#add9 Dm7 Gm7 F Cm7 Cm

e ------1------1-----3----1-----3----3

B ------1------1-----6----1-----4----4

G ------3------2-----3----2-----3----5

D ------3------0-----5----3-----5----5

A ------1------x-----5----3-----0----0

E ------x------x-----x----x-----x----x





Intro del piano y despues esto en guitarra

e -1--------------------------|

B ---1-------1----------1-----| 2 veces

G -----3---3---3------3---3---|Acorde A#add9

D -------3-------3--3-------3-|





A#add9

Quiero decirte tan solo

Dm7

que me he quedado tan solo

Gm7 F

voy recorriendo el espejo,

Cm7

buscando tus ojos

A#add9

Tan solo...



>>>>>>>>>>>>>>>>>>>>>>>





(mismas notas)

Quiero decirte tan solo,

que me he quedado tan solo

paso las horas vacias

.... mirando tu foto

tan solo....







Gm7 Dm7 Cm7

Y si el mundo da una vuelta

A#add9

y pasas por aqui,

Gm7 Dm7 Cm7

no te extraño encontrarme deshecho,

A#dd9

que va a ser de mi.

Gm7 Dm7 Cm7

Como tu yo tambien soy humano

F

y me duele estar solo.





(CORO)

Gm7 Cm Gm7

Solo, solo, solo.

F

Solo solo.

Gm7 Cm Gm7

https://www.coveralia.com/acordes/solo-sin-bandera.php
Solo, solo, solo.

F A#dd9

Tan solo.







>>>>>>>>mismas>notas>>>>



Quiero decirte tan solo,

que aunque me encuentre tan solo,

que hoy cuando salga a la calle

no va a notar nadie ...que lloro

y aunque el dolor es espeso

se diluirá con un beso,

que me demuestre que

tu no eras mucho mas que eso.

Tan solo.



Y si el mundo da otra vuelta

y te devuelve aquí,

no te extrañe encontrarme de espaldas

y alguien frente a mi.

Como tu yo también soy humano

y no quiero estar solo.



(CORO)





Este es el solo corregido, esta bien esta vez



e |-------------------------------------------------|

B |-------------------8-10-11-8h10-8----------------|

G |-7-7-7-7-7-7----7-----------------7------7-------|

D |-------------10-----------------------10---------|





e |-------------------------------------------------|

B |-------------------------------------------------|

G |----7-8-8-8-8-8-8-7h8-7--------------------------|

D |-10---------------------10-8-8-------------------|



e |-------------------------------------------------|

B |-------------------------------------------------|

G |-7h8-8-8-8-7h8-7---------------------------------|

D |-----------------10-8-8--------------------------|



e |-----------------------8-10-11-11-10-8-----------|

B |---------------8-10-11-----------------11--------|

G |-------5h6-7-9----------------------------10-----|

D |-8-8-8-------------------------------------------|



e |-------------------------------------------------|

B |-11-10-8------8-8~~------------------------------|

G |---------10-8------------------------------------|

D |-------------------------------------------------|

Se repite (CORO) de vuelta

La cancion termina en A#add9

NOta: la guitarra electrica toca las mismas notas

pero solo los bajos .

Letra subida por: Anónimo

Discos en los que aparece este acorde: Pasado , Canciones De Amor , Lo Esencial De Sin Bandera

El acorde de Solo de Sin Bandera es una versión de la canción original realizada por colaboradores/usuarios de Coveralia.

¿Has encontrado algún error en esta página? Envíanos tu corrección del acorde