música
Buscador

Acorde de Solo - Second

Letra de Solo



Cejilla en el traste 3

-------------------------------------



MI5 (6 rasgueos) SOL5|

MI5 (6 rasgueos) RE5 | x4



MI5 SOL5

A veces dejo que

MI5 RE5

la lengua tire veneno

MI5 SOL5

Te diré un secreto

MI5 RE5

Aunque todos lo piensen,

MI5 SOL

no soy de acero

MI5 RE5

A veces miro allí,

MI5 SOL5

a veces ya no te veo

MI5 RE5

La barrera es para

MI5 SOL5

proteger mi pecho



LAm

Solo sé que me arrepentiré

DO

solo de lo que no haya hecho

MIm SOL

Aunque esta vez, tampoco salga bien

LAm

Solo sé que me arrepentiré

DO

solo de lo que no haya dicho

MIm SOL

Escúchame y luego me iré



MI5 - SOL5

MI5 - RE5



MI5 SOL5

No hay que decir por qué

MI5 RE5

Prefiero ser un culpable

MI5

que un cobarde

MI5 SOL5

que se acuesta siempre

MI5 RE5

con la misma sed

MI5 SOL5

Vamos a beber

MI5 RE5

y después veremos que



LAm

Solo sé que me arrepentiré

DO

solo de lo que no haya hecho

MIm SOL

Aunque esta vez, tampoco salga bien

LAm DO

Solo sé que me arrepentiré

DO

solo de lo que no haya dicho

MIm SOL

Escúchame y luego me iré



((Los nº del punteo son

https://www.coveralia.com/acordes/solo-second.php
relativos a la cejilla en el 3º))



a -----------2-----------

e -0-3-0-5-0---0-5-0-3-0-



e ---2---5---7---5---2---

a -0---0---0---0---0---0-



DO

Que se me corte la bestia

MI5 SOL5

que vive dentro de mí

MI5 RE5

Y que quiere salir,

MI5 SOL5

y que quiere salir

MI5 RE5

Y que quiere conocer

MI5 SOL5

y que quiere descubrir

MI5 RE5

Y que quiere decir que



LAm

Solo sé que me arrepentiré

DO

solo de lo que no haya hecho

MIm SOL

Aunque esta vez, tampoco salga bien

LAm

Solo sé que me arrepentiré

DO

solo de lo que no haya dicho

MIm SOL

Escúchame y luego me iré



LAm

Solo sé que me arrepentiré

DO

solo de lo que no haya hecho

MIm

Solo sé que me arrepentiré

SOL

solo de lo que no haya hecho



LAm - DO - MI - SOL x2 (con el punteo)



-15-13----------15-13---------------13-

-------15-13---------15-13----13-15----

-------------15------------15----------



-15-13----------15-13------------------

-------15-13---------15-13----13-15----

-------------15------------15-------12-



-15-13----------15-13---------------13-

-------15-13---------15-13----13-15----

-------------15------------15----------



-15----13------------------------------

-------------15------13----------------

---------------------------15-------12-



((en este punteo los números son los

del traste que pone, con o sin cejilla))









Letra subida por: Anónimo

Discos en los que aparece este acorde: Viaje Iniciatico

El acorde de Solo de Second es una versión de la canción original realizada por colaboradores/usuarios de Coveralia.

¿Has encontrado algún error en esta página? Envíanos tu corrección del acorde