música
Buscador

Acorde de Smile - Michael Bolton

Letra de Smile

Intro: C  Am7  Dm7 



Dedilhado da Intro:

C

E|-----0--0-----0------|

B|-----1--1-----1------|

G|-----0--0-----0------|

D|---------------------|

A|--3--------3---------|

E|---------------------|

Am7

E|-----0--0-----0-----|

B|-----1--1-----1-----|

G|-----0--0-----0-----|

D|--------------------|

A|--0--------0--------|

E|--------------------|

Dm7

E|-----1--1-----1-----|

B|-----1--1-----1-----|

G|-----2--2-----2-----|

D|--0--------0--------|

A|--------------------|

E|--------------------|

Dm7

E|-----0--0----0------|

B|-----0--0----0------|

G|-----0--0----1------|

D|--------------------|

A|--------------------|

E|--3-------3---------|





Primeira Parte:

C C9

Smile, though your heart is aching,

C7+ C9

Smile, even though it's breaking;

Em7 D#º Dm7 A4(7) A7

When there are clouds in the sky, you'll get by



Dedilhado da Primeira Parte:

C C9

E|-----0-----0-------0------0---|

B|-----1-----1-------3------3---|

G|-----0-----0-------0------0---|

D|------------------------------|

A|--3-----3-------3------3------|

E|------------------------------|

C7M C9

E|-----0-----0-------0------0---|

B|-----0-----0-------3------3---|

G|-----0-----0-------0------0---|

D|------------------------------|

A|--3-----3-------3------3------|

E|------------------------------|

Em7 D#º

E|-----3-----3------2------2----|

B|-----3-----3------1------1----|

G|-----0-----0------2------2----|

D|---------------1-----1--------|

A|------------------------------|

E|--0-----0---------------------|

Dm7 A4(7) A7

E|-----1-----1-----0-----0------|

B|-----1-----1-----3-----2------|

G|-----2-----2-----0-----0------|

D|--0-----0---------------------|

A|--------------0-----0---------|

E|------------------------------|





Segunda Parte:

Dm7

If you smile through your fear and sorrow,

Fm Fm/Bb

https://www.coveralia.com/acordes/smile-michael-bolton.php

Smile, and maybe tomorrow

C Am7 Dm7 G6 G6(9-)

You'll see the sun come shining through for you.



Dedilhado da Segunda Parte:

Dm7

E|-----1-----1-----1-----1-------|

B|-----1-----1-----1-----1-------|

G|-----2-----2-----2-----2-------|

D|--0-----0-----0-----0----------|

A|-------------------------------|

E|-------------------------------|

Fm Fm/Bb

E|-----1-----1-----1-----1-------|

B|-----1-----1-----1-----1-------|

G|-----1-----1-----1-----1-------|

D|--3-----3----------------------|

A|--------------1-----1----------|

E|-------------------------------|



E|-----0-----0-----0-----0-------|

B|-----1-----1-----1-----1-------|

G|-----0-----0-----0-----0-------|

D|-------------------------------|

A|--3-----3-----0-----0----------|

E|-------------------------------|

Dm7

E|-----1-----1-----0-----0-------|

B|-----1-----1-----0-----0-------|

G|-----2-----2-----0-----1-------|

D|--0-----0----------------------|

A|-------------------------------|

E|--------------3-----3----------|





Primeira Parte (com variação na letra):

C C9

Light up your face with gladness,

C7+ C9

Hide every trace of sadness,

Em7 D#º Dm7 A4(7) A7

Although a tear may be ev - er so near,



Segunda Parte (com variação na letra):

Dm7

That's the time you must keep on trying,

Fm Fm/Bb

Smile - what's the use of crying?

C Am7 Dm7

You'll find that life is still worth while



G6 G6(9-)

If you'll just smile.



( C C9 C7M C9 Em7 D#º Dm7 G6 G6(9-) )



Segunda Parte (com variação na letra):

Dm7

That's the time you must keep on trying,

Fm Fm/Bb

Smile - what's the use of crying?

C Am7 Dm7

You'll find that life is still worth while

G6 G6(9-) F7M Fm C

If you'll just smile.



Dedilhado Final:

F Fm C

E|-----0-----0-----1-----1-----0-----0-|

B|-----1-----1-----1-----1-----1-----1-|

G|-----2-----2-----1-----1-----0-----0-|

D|--3-----3-----3-----3----------------|

A|--------------------------3-----3----|

E|-------------------------------------|

Letra subida por: Anónimo

Discos en los que aparece este acorde: Vintage

El acorde de Smile de Michael Bolton es una versión de la canción original realizada por colaboradores/usuarios de Coveralia.

¿Has encontrado algún error en esta página? Envíanos tu corrección del acorde