música
Buscador

Acorde de Sleeping In My Car - Roxette

Letra de Sleeping In My Car

For bridge use these chords:

    F#   F#/F  D#m  F#/C#
e|--6----6-----6----6----------------------|
B|--7----7-----7----7----------------------|
G|--6----6-----8----6----------------------|
D|--8----8-----8----8----------------------|
A|--9----8-----6----x----------------------|
E|--x----x-----x----9----------------------|


    Melody 1:

e|------------------------------------------|
B|------------------------------------------|
G|------------------------------------------|  Play
D|----------7---9--7--------------7--9-7----|   x2
A|---7---9----9-------7------7-9---------7--|
E|-9---9-------------------9----------------|

e|-----------|
B|-----------|
G|-----------|
D|-----------|
A|---7---9---|
E|-9---9-----|

        Melody 2 ("solo"):
        
e|-------------------------------------------|
B|-------------------------------------------|
G|-------------------------------------------|
D|----------7---9--7--------------7--9-7-----|
A|---7---9----9-------7------7-9---------7---|
E|-9---9-------------------9-----------------|

e|------------------------------------------|
B|------------------------------------------|
G|------------------------------------------|
D|----------7---9--7---------------7-6------|
A|---7---9----9-------7------7-9-------9----|
E|-9---9-------------------9----------------|



Intro:

F#m E D E  | x2

[Verse 1]

F#m      
I'll tell you what I've done
E
I'll tell you what I'll do
     F#m                D        
Been driving all night just to get close to you
F#m                        E
Baby babe - I'm moving so fast
                  B   C# D
You'd better come on

F#m
The moon is alright
E
The freeway's heading South
   E
My Heart is going Boom!
D
There's a strange taste in my mouth
F#m                          E
Baby babe - I'm moving real fast
               B   C# D
So try to hold on
            F#m
Try to hold on!


[Chorus]

               F#           C#
Sleeping in my car - I will undress you
               D#m            B 
Sleeping in my car - I will caress you
               F#              C#         B   C#
Staying in the back seat of my car making up


[Verse 2]

   F#m
So come out tonight
E
I'll take you for a ride
F#m
This steamy ol' wagon
D
The radio is getting wild
F#m                       E
Baby babe we're moving so fast
              B   C# D
I try to hang on
            F#m
Try to hang on!

               F#           C#
Sleeping in my car - I will undress you
               D#m           B
Sleeping in my car - I will caress you
               F#              C#         B   C#
Staying in the back seat of my car making love, oh yea!

               F#           C#
Sleeping in my car - I will posess you
               D#m            B 
Sleeping in my car - certainly bless you
               F#              C#         B   C#
Laying in the back seat of my car making up

[Bridge]

    F#          F#/F           D#m    F#/C#  
The night is so pretty and so young
    F#          F#/F           D#m    F#/C#
The night is so pretty and so young
B       C#
So very young...

F#m E D E
F#m E C# D

               F#           C#
Sleeping in my car - I will undress you
               D#m           B 
Sleeping in my car - I will caress you
               F#              C#         B   C#
Staying in the back seat of my car making love to you

               F#           C#
Sleeping in my car - I will posess you
               D#m           B
Sleeping in my car - certainly bless you
               F#              C#         B   C#
Laying in the back seat of my car making up

F# C# D#m B
F# C# B C#

F#          C# 
   I will undress you
D#m      B
I will undress you

F# C#                    B   C# 
      Ah, sleeping in my car
                F#      C# 
(Sleeping in my car)
                I will undress you

                    D#m      B
(Sleeping in my car)
               
    F#          C#           B      C# 
The night is so pretty and so young, oh yeah!


Letra subida por: Anónimo

¿Has encontrado algún error en esta página? Envíanos tu corrección del acorde